Song name
# A B C D E F G H I J K L M N O P Q R S T U V W X Y Z

Thrown To The Sun - Laceration tab

                                  Laceration


                                Thrown to the Sun

                            Ahmet Saracoglu/Bahadir Sarp


                           http://www.throwntothesun.com/


     Q    Q    Q    Q
D||----------------------|
A||----------------------|
F||----------------------|
C||----------------------|
G||----------------------|
D||----------------------|
A||----------------------|


  PM                                             PM    PM    PM
        |----3---|  |----3---|   |----3----|
  E  E  E    E   E  E    E   E   E    E    E  E  E  E  E  E  E  Q
----------------------------------------------------------------------|
----------------------------------------------------------------------|
----------------------------------------------------------------------|
--------------------8h--11p--8----------------------------------------|
--------7h--10p--7--------------10h--13p--10--------7-----------3~----|
--0-------------------------------------------7-----------3-----------|
-------------------------------------------------0-----0-----0--------|


  PM PM                                          PM    PM    PM
        |----3---|  |----3---|   |----3----|
  E  E  E    E   E  E    E   E   E    E    E  E  E  E  E  E  E  Q
----------------------------------------------------------------------|
----------------------------------------------------------------------|
----------------------------------------------------------------------|
--------------------8h--11p--8----------------------------------------|
--------7h--10p--7--------------10h--13p--10--------7-----8-----6~----|
--0--0----------------------------------------7-----------------------|
-------------------------------------------------0-----0-----0--------|


  PM PM                                          PM    PM    PM
        |----3---|  |----3---|   |----3----|
  E  E  E    E   E  E    E   E   E    E    E  E  E  E  E  E  E  Q
----------------------------------------------------------------------|
----------------------------------------------------------------------|
----------------------------------------------------------------------|
--------------------8h--11p--8----------------------------------------|
--------7h--10p--7--------------10h--13p--10--------7-----------3~----|
--0--0----------------------------------------7-----------3-----------|
-------------------------------------------------0-----0-----0--------|


  PM PM                                          PM    PM    PM
        |----3---|  |----3---|   |----3----|
  E  E  E    E   E  E    E   E   E    E    E  E  E  E  E  E  E  Q
----------------------------------------------------------------------|
----------------------------------------------------------------------|
----------------------------------------------------------------------|
--------------------8h--11p--8----------------------------------------|
--------7h--10p--7--------------10h--13p--10--------7-----8-----6~----|
--0--0----------------------------------------7-----------------------|
-------------------------------------------------0-----0-----0--------|


  PM PM                                          PM    PM    PM
        |----3---|  |----3---|   |----3----|
  E  E  E    E   E  E    E   E   E    E    E  E  E  E  E  E  E  Q
----------------------------------------------------------------------|
----------------------------------------------------------------------|
----------------------------------------------------------------------|
--------------------8h--11p--8----------------------------------------|
--------7h--10p--7--------------10h--13p--10--------7-----------3~----|
--0--0----------------------------------------7-----------3-----------|
-------------------------------------------------0-----0-----0--------|


  PM PM                                          PM    PM    PM
        |----3---|  |----3---|   |----3----|
  E  E  E    E   E  E    E   E   E    E    E  E  E  E  E  E  E  Q
----------------------------------------------------------------------|
----------------------------------------------------------------------|
----------------------------------------------------------------------|
--------------------8h--11p--8----------------------------------------|
--------7h--10p--7--------------10h--13p--10--------7-----8-----6~----|
--0--0----------------------------------------7-----------------------|
-------------------------------------------------0-----0-----0--------|


  Q    Q     H
-----------------------|
-----------------------|
-----------------------|
-----------------------|
-----------------------|
--0---------12\--------|
-----------------------|


       PM PM PM PM PM   PM PM PM PM
  |--3-|  |--3--|  |--3-|  |--3--|  |----3---|  |---3---|  |---3---|  |---3---|
  Q    E  E  E  E  Q    E  E  E  E  E    E   E  E   E   E  E   E   E  E   E   E
--------------------------------------------------------------------------------|
--------------------------------------------------------------------------------|
--------------------------------------------------------------------------------|
------------------------------------------------5h--8p--5-----------------------|
------------------------------------7h--10p--7-------------6h--9p--6--3h--6p--3-|
--0----0--0--0--0--0----0--0--0--0----------------------------------------------|
--------------------------------------------------------------------------------|


       PM PM PM PM PM   PM PM PM PM
  |--3-|  |--3--|  |--3-|  |--3--|  |----3---|  |---3---|  |---3---|  3
  Q    E  E  E  E  Q    E  E  E  E  E    E   E  E   E   E  E   E   E  Q.
------------------------------------------------------------------------------|
------------------------------------------------------------------------------|
------------------------------------------------------------------------------|
------------------------------------------------5h--8p--5---------------------|
------------------------------------7h--10p--7-------------6h--9p--6--3~------|
--0----0--0--0--0--0----0--0--0--0--------------------------------------------|
------------------------------------------------------------------------------|


       PM PM PM PM PM   PM PM PM PM
  |--3-|  |--3--|  |--3-|  |--3--|  |----3---|  |---3---|  |---3---|  |---3---|
  Q    E  E  E  E  Q    E  E  E  E  E    E   E  E   E   E  E   E   E  E   E   E
--------------------------------------------------------------------------------|
--------------------------------------------------------------------------------|
--------------------------------------------------------------------------------|
------------------------------------------------5h--8p--5-----------------------|
------------------------------------7h--10p--7-------------6h--9p--6--3h--6p--3-|
--0----0--0--0--0--0----0--0--0--0----------------------------------------------|
--------------------------------------------------------------------------------|


  H          Q    Q    H        H
------------------------------------------|
------------------------------------------|
--------------------------------8~--------|
------------10----9----8------------------|
--3~--------------------------------------|
------------------------------------------|
------------------------------------------|


       PM PM PM PM PM   PM PM PM PM
  |--3-|  |--3--|  |--3-|  |--3--|  |----3---|  |---3---|  |---3---|  |---3---|
  Q    E  E  E  E  Q    E  E  E  E  E    E   E  E   E   E  E   E   E  E   E   E
--------------------------------------------------------------------------------|
--------------------------------------------------------------------------------|
--------------------------------------------------------------------------------|
------------------------------------------------5h--8p--5-----------------------|
------------------------------------7h--10p--7-------------6h--9p--6--3h--6p--3-|
--0----0--0--0--0--0----0--0--0--0----------------------------------------------|
--------------------------------------------------------------------------------|


       PM PM PM PM PM   PM PM PM PM
  |--3-|  |--3--|  |--3-|  |--3--|  |----3---|  |---3---|  |---3---|  3
  Q    E  E  E  E  Q    E  E  E  E  E    E   E  E   E   E  E   E   E  Q.
------------------------------------------------------------------------------|
------------------------------------------------------------------------------|
------------------------------------------------------------------------------|
------------------------------------------------5h--8p--5---------------------|
------------------------------------7h--10p--7-------------6h--9p--6--3~------|
--0----0--0--0--0--0----0--0--0--0--------------------------------------------|
------------------------------------------------------------------------------|


       PM PM PM PM PM   PM PM PM PM
  |--3-|  |--3--|  |--3-|  |--3--|  |----3---|  |---3---|  |---3---|  |---3---|
  Q    E  E  E  E  Q    E  E  E  E  E    E   E  E   E   E  E   E   E  E   E   E
--------------------------------------------------------------------------------|
--------------------------------------------------------------------------------|
--------------------------------------------------------------------------------|
------------------------------------------------5h--8p--5-----------------------|
------------------------------------7h--10p--7-------------6h--9p--6--3h--6p--3-|
--0----0--0--0--0--0----0--0--0--0----------------------------------------------|
--------------------------------------------------------------------------------|


  H         Q    Q    H         H
------------------------------------------|
------------------------------------------|
------------9----8------------------------|
----------------------9~------------------|
--3~----------------------------9~--------|
------------------------------------------|
------------------------------------------|


  PM PM    PM    PM PM     PM    PM PM
  E  E  E  E  E  E  E   E  E  E  E  E   E  E  E  E
----------------------------------------------------|
----------------------------------------------------|
-----------------------11-----8---------------------|
--------------9------------------------10--9--7--9--|
--------7-------------------------------------------|
--0--0-----0-----0--0------0-----0--0---------------|
----------------------------------------------------|


  PM PM    PM    PM PM     PM    PM PM PM
  E  E  E  E  E  E  E   E  E  E  E  E  E  E  E  E
---------------------------------------------------|
---------------------------------------------------|
-----------------------11-----8--------------------|
--------------9------------------------------3-----|
--------7------------------------------------------|
--0--0-----0-----0--0------0-----0--0--0--1-----1--|
---------------------------------------------------|


  PM PM    PM    PM PM     PM    PM PM
  E  E  E  E  E  E  E   E  E  E  E  E   E  E  E   E
------------------------------------------------------|
------------------------------------------------------|
-----------------------11-----8-----------------------|
--------------9------------------------10--9--7-------|
--------7----------------------------------------10~--|
--0--0-----0-----0--0------0-----0--0-----------------|
------------------------------------------------------|


  E  E  E   E  E  E  E   E  E  E   E  E  E  E  E  E
-----------------------------------------------------|
-----------------------------------------------------|
-----9--7--------------------------------------------|
-----------10--9--7--9--10--9--7---------------------|
--L-------------------------------10--9--7--6--7--9--|
-----------------------------------------------------|
-----------------------------------------------------|


  PM PM    PM    PM PM     PM    PM PM
  E  E  E  E  E  E  E   E  E  E  E  E   E  E  E  E
----------------------------------------------------|
----------------------------------------------------|
-----------------------11-----8---------------------|
--------------9------------------------10--9--7--9--|
--------7-------------------------------------------|
--0--0-----0-----0--0------0-----0--0---------------|
----------------------------------------------------|


  PM PM    PM    PM PM     PM    PM PM PM
  E  E  E  E  E  E  E   E  E  E  E  E  E  E  E  E
---------------------------------------------------|
---------------------------------------------------|
-----------------------11-----8--------------------|
--------------9------------------------------8-----|
--------7------------------------------------------|
--0--0-----0-----0--0------0-----0--0--0--6-----6--|
---------------------------------------------------|


  PM PM    PM    PM PM     PM    PM PM
  E  E  E  E  E  E  E   E  E  E  E  E   E  E  E   E
------------------------------------------------------|
------------------------------------------------------|
-----------------------11-----8-----------------------|
--------------9------------------------10--9--7-------|
--------7----------------------------------------10~--|
--0--0-----0-----0--0------0-----0--0-----------------|
------------------------------------------------------|


  E  E  E   E  E  E  E   E  E  E   E  E  E  E  E  E
-----------------------------------------------------|
-----------------------------------------------------|
-----9--7--------------------------------------------|
-----------10--9--7--9--10--9--7---------------------|
--L-------------------------------10--9--7--6--7--9--|
-----------------------------------------------------|
-----------------------------------------------------|


  |--3--|  |--3--|  |--3--|  |--3--|  |--3--|  |--3--|  |--3--|  |--3--|
  E  E  E  E  E  E  E  E  E  E  E  E  E  E  E  E  E  E  E  E  E  E  E  E
--------------------------------------------------------------------------|
--------------------------------------------------------------------------|
--------------------------------------------------------------------------|
--------------------------------------------------------------------------|
--------------------------------------------------------6--6--6--7--7--7--|
--0--0--0--0--0--0--0--0--0--0--0--0--8--8--8--5--5--5--------------------|
--------------------------------------------------------------------------|


  |--3--|   |---3---|  |--3--|  |--3--|  |--3--|  |--3--|  |--3--|  |--3--|
  E  E  E   E   E   E  E  E  E  E  E  E  E  E  E  E  E  E  E  E  E  E  E  E
-----------------------------------------------------------------------------|
-----------------------------------------------------------------------------|
-----------------------------------------------------------------------------|
-----------------------------------------------------------------------------|
-----------10--10--10--9--9--9--7--7--7--6--6--6--7--7--7--9--9--9--6--6--6--|
--8--8--8--------------------------------------------------------------------|
-----------------------------------------------------------------------------|


  |--3--|  |--3--|  |--3--|  |--3--|  |--3--|  |--3--|  |--3--|  |--3--|
  E  E  E  E  E  E  E  E  E  E  E  E  E  E  E  E  E  E  E  E  E  E  E  E
--------------------------------------------------------------------------|
--------------------------------------------------------------------------|
--------------------------------------------------------------------------|
--------------------------------------------------------------------------|
--------------------------------------------------------6--6--6--7--7--7--|
--0--0--0--0--0--0--0--0--0--0--0--0--8--8--8--5--5--5--------------------|
--------------------------------------------------------------------------|


                                            PM
    H.           Q     H        H           E  E  E  E
-----------------------------------------|--------------|
-----------------------------------------|--------------|
-----------------------------------------|--------------|
--/10------------9S----3--------3--------|--------------|
-----------------------------------------|-----7--------|
---/8------------7S----1--------1--------|--0-----------|
-----------------------------------------|--------------|


  PM PM    PM    PM PM     PM    PM PM
  E  E  E  E  E  E  E   E  E  E  E  E   E  E  E  E
----------------------------------------------------|
----------------------------------------------------|
-----------------------11-----8---------------------|
--------------9------------------------10--9--7--9--|
--------7-------------------------------------------|
--0--0-----0-----0--0------0-----0--0---------------|
----------------------------------------------------|


  PM PM    PM    PM PM     PM    PM PM PM
  E  E  E  E  E  E  E   E  E  E  E  E  E  E  E  E
---------------------------------------------------|
---------------------------------------------------|
-----------------------11-----8--------------------|
--------------9------------------------------3-----|
--------7------------------------------------------|
--0--0-----0-----0--0------0-----0--0--0--1-----1--|
---------------------------------------------------|


  PM PM    PM    PM PM     PM    PM PM
  E  E  E  E  E  E  E   E  E  E  E  E   E  E  E   E
------------------------------------------------------|
------------------------------------------------------|
-----------------------11-----8-----------------------|
--------------9------------------------10--9--7-------|
--------7----------------------------------------10~--|
--0--0-----0-----0--0------0-----0--0-----------------|
------------------------------------------------------|


  E  E  E   E  E  E  E   E  E  E   E  E  E  E  E  E
-----------------------------------------------------|
-----------------------------------------------------|
-----9--7--------------------------------------------|
-----------10--9--7--9--10--9--7---------------------|
--L-------------------------------10--9--7--6--7--9--|
-----------------------------------------------------|
-----------------------------------------------------|


  PM PM    PM    PM PM     PM    PM PM
  E  E  E  E  E  E  E   E  E  E  E  E   E  E  E  E
----------------------------------------------------|
----------------------------------------------------|
-----------------------11-----8---------------------|
--------------9------------------------10--9--7--9--|
--------7-------------------------------------------|
--0--0-----0-----0--0------0-----0--0---------------|
----------------------------------------------------|


  PM PM    PM    PM PM     PM    PM PM PM
  E  E  E  E  E  E  E   E  E  E  E  E  E  E  E  E
---------------------------------------------------|
---------------------------------------------------|
-----------------------11-----8--------------------|
--------------9------------------------------8-----|
--------7------------------------------------------|
--0--0-----0-----0--0------0-----0--0--0--6-----6--|
---------------------------------------------------|


  PM PM    PM    PM PM     PM    PM PM
  E  E  E  E  E  E  E   E  E  E  E  E   E  E  E   E
------------------------------------------------------|
------------------------------------------------------|
-----------------------11-----8-----------------------|
--------------9------------------------10--9--7-------|
--------7----------------------------------------10~--|
--0--0-----0-----0--0------0-----0--0-----------------|
------------------------------------------------------|


  E  E  E   E  E  E  E   E  E  E   E  E  E  E  E  E
-----------------------------------------------------|
-----------------------------------------------------|
-----9--7--------------------------------------------|
-----------10--9--7--9--10--9--7---------------------|
--L-------------------------------10--9--7--6--7--9--|
-----------------------------------------------------|
-----------------------------------------------------|


  |--3--|  |--3--|  |--3--|  |--3--|  |--3--|  |--3--|  |--3--|  |--3--|
  E  E  E  E  E  E  E  E  E  E  E  E  E  E  E  E  E  E  E  E  E  E  E  E
--------------------------------------------------------------------------|
--------------------------------------------------------------------------|
--------------------------------------------------------------------------|
--------------------------------------------------------------------------|
--------------------------------------------------------6--6--6--7--7--7--|
--0--0--0--0--0--0--0--0--0--0--0--0--8--8--8--5--5--5--------------------|
--------------------------------------------------------------------------|


  |--3--|   |---3---|  |--3--|  |--3--|  |--3--|  |--3--|  |--3--|  |--3--|
  E  E  E   E   E   E  E  E  E  E  E  E  E  E  E  E  E  E  E  E  E  E  E  E
-----------------------------------------------------------------------------|
-----------------------------------------------------------------------------|
-----------------------------------------------------------------------------|
-----------------------------------------------------------------------------|
-----------10--10--10--9--9--9--7--7--7--6--6--6--7--7--7--9--9--9--6--6--6--|
--8--8--8--------------------------------------------------------------------|
-----------------------------------------------------------------------------|


  |--3--|  |--3--|  |--3--|  |--3--|  |--3--|  |--3--|  |--3--|  |--3--|
  E  E  E  E  E  E  E  E  E  E  E  E  E  E  E  E  E  E  E  E  E  E  E  E
--------------------------------------------------------------------------|
--------------------------------------------------------------------------|
--------------------------------------------------------------------------|
--------------------------------------------------------------------------|
--------------------------------------------------------6--6--6--7--7--7--|
--0--0--0--0--0--0--0--0--0--0--0--0--8--8--8--5--5--5--------------------|
--------------------------------------------------------------------------|


    H.           Q     H        H
-----------------------------------------|
-----------------------------------------|
-----------------------------------------|
--/10------------9S----3--------3--------|
-----------------------------------------|
---/8------------7S----1--------1--------|
-----------------------------------------|


  PM PM         PM PM         PM PM         PM PM
  E  E   E   E  E  E  E    E  E  E   E   E  E  E  E   E
---------------------------------------------------------|
---------------------------------------------------------|
--------12S--9--------9S--11--------11S--5--------5S--8--|
---------------------------------------------------------|
--------10S--7--------7S---9---------9S--3--------3S--6--|
--0--0----------0--0----------0--0----------0--0---------|
---------------------------------------------------------|


  |----3---|  |----3---|  |----3---|  |----3---|  |---3---|  |---3---|  |---3---
  E    E   E  E    E   E  E    E   E  E    E   E  E   E   E  E   E   E  E   E
--------------------------------------------------------------------------------|
--------------------------------------------------------------------------------|
--------------------------------------------------------------------------------|
--------------------------------------------------------------------------------|
--7h--10p--7--7h--10p--7------------------------------------------------6h--9p--|
--------------------------8h--11p--8--8h--11p--8--5h--8p--5--5h--8p--5----------|
--------------------------------------------------------------------------------|


  PM PM         PM PM         PM PM         PM PM
  E  E   E   E  E  E  E    E  E  E   E   E  E  E  E   E
---------------------------------------------------------|
---------------------------------------------------------|
--------12S--9--------9S--11--------11S--5--------5S--8--|
---------------------------------------------------------|
--------10S--7--------7S---9---------9S--3--------3S--6--|
--0--0----------0--0----------0--0----------0--0---------|
---------------------------------------------------------|


           PM PM      PM PM      PM PM
  H        E  E  Q    E  E  Q    E  E  Q
--------------------------------------------|
--------------------------------------------|
--------------------------------------------|
--8-------------------------3---------------|
----------------------------3---------------|
--6--------6--6--0----1--1--1----1--1-------|
--------------------------------------------|


  PM PM         PM PM         PM PM         PM PM
  E  E   E   E  E  E  E    E  E  E   E   E  E  E  E   E
---------------------------------------------------------|
---------------------------------------------------------|
--------12S--9--------9S--11--------11S--5--------5S--8--|
---------------------------------------------------------|
--------10S--7--------7S---9---------9S--3--------3S--6--|
--0--0----------0--0----------0--0----------0--0---------|
---------------------------------------------------------|


  |----3---|  |----3---|  |----3---|  |----3---|  |---3---|  |---3---|  |---3---
  E    E   E  E    E   E  E    E   E  E    E   E  E   E   E  E   E   E  E   E
--------------------------------------------------------------------------------|
--------------------------------------------------------------------------------|
--------------------------------------------------------------------------------|
--------------------------------------------------------------------------------|
--7h--10p--7--7h--10p--7------------------------------------------------6h--9p--|
--------------------------8h--11p--8--8h--11p--8--5h--8p--5--5h--8p--5----------|
--------------------------------------------------------------------------------|


  PM PM         PM PM         PM PM         PM PM
  E  E   E   E  E  E  E    E  E  E   E   E  E  E  E   E
---------------------------------------------------------|
---------------------------------------------------------|
--------12S--9--------9S--11--------11S--5--------5S--8--|
---------------------------------------------------------|
--------10S--7--------7S---9---------9S--3--------3S--6--|
--0--0----------0--0----------0--0----------0--0---------|
---------------------------------------------------------|


           PM PM      PM PM      PM PM
  H        E  E  Q    E  E  Q    E  E  Q
--------------------------------------------|
--------------------------------------------|
--------------------------------------------|
--8-------------------------3---------------|
----------------------------3---------------|
--6--------6--6--0----1--1--1----1--1-------|
--------------------------------------------|


  PM PM         PM PM         PM PM         PM PM
  E  E   E   E  E  E  E    E  E  E   E   E  E  E  E   E
---------------------------------------------------------|
---------------------------------------------------------|
--------12S--9--------9S--11--------11S--5--------5S--8--|
---------------------------------------------------------|
--------10S--7--------7S---9---------9S--3--------3S--6--|
--0--0----------0--0----------0--0----------0--0---------|
---------------------------------------------------------|


  |----3---|  |----3---|  |----3---|  |----3---|  |---3---|  |---3---|  |---3---
  E    E   E  E    E   E  E    E   E  E    E   E  E   E   E  E   E   E  E   E
--------------------------------------------------------------------------------|
--------------------------------------------------------------------------------|
--------------------------------------------------------------------------------|
--------------------------------------------------------------------------------|
--7h--10p--7--7h--10p--7------------------------------------------------6h--9p--|
--------------------------8h--11p--8--8h--11p--8--5h--8p--5--5h--8p--5----------|
--------------------------------------------------------------------------------|


  PM PM         PM PM         PM PM         PM PM
  E  E   E   E  E  E  E    E  E  E   E   E  E  E  E   E
---------------------------------------------------------|
---------------------------------------------------------|
--------12S--9--------9S--11--------11S--5--------5S--8--|
---------------------------------------------------------|
--------10S--7--------7S---9---------9S--3--------3S--6--|
--0--0----------0--0----------0--0----------0--0---------|
---------------------------------------------------------|


           PM PM      PM PM      PM PM
  H        E  E  Q    E  E  Q    E  E  Q
--------------------------------------------|
--------------------------------------------|
--------------------------------------------|
--8-------------------------3---------------|
----------------------------3---------------|
--6--------6--6--0----1--1--1----1--1-------|
--------------------------------------------|


  PM PM         PM PM         PM PM         PM PM
  E  E   E   E  E  E  E    E  E  E   E   E  E  E  E   E
---------------------------------------------------------|
---------------------------------------------------------|
--------12S--9--------9S--11--------11S--5--------5S--8--|
---------------------------------------------------------|
--------10S--7--------7S---9---------9S--3--------3S--6--|
--0--0----------0--0----------0--0----------0--0---------|
---------------------------------------------------------|


  |----3---|  |----3---|  |----3---|  |----3---|  |---3---|  |---3---|  |---3---
  E    E   E  E    E   E  E    E   E  E    E   E  E   E   E  E   E   E  E   E
--------------------------------------------------------------------------------|
--------------------------------------------------------------------------------|
--------------------------------------------------------------------------------|
--------------------------------------------------------------------------------|
--7h--10p--7--7h--10p--7------------------------------------------------6h--9p--|
--------------------------8h--11p--8--8h--11p--8--5h--8p--5--5h--8p--5----------|
--------------------------------------------------------------------------------|


  PM PM         PM PM         PM PM         PM PM
  E  E   E   E  E  E  E    E  E  E   E   E  E  E  E   E
---------------------------------------------------------|
---------------------------------------------------------|
--------12S--9--------9S--11--------11S--5--------5S--8--|
---------------------------------------------------------|
--------10S--7--------7S---9---------9S--3--------3S--6--|
--0--0----------0--0----------0--0----------0--0---------|
---------------------------------------------------------|


           PM PM      PM PM            PM PM
  H        E  E  Q    E  E  Q    E  E  E  E
---------------------------------------------|
---------------------------------------------|
---------------------------------------------|
--8-------------------------3----3--3--------|
----------------------------3----3--3--------|
--6--------6--6--0----1--1--1----1--1--1--1--|
---------------------------------------------|


  W                W
------------------------------------|-------------------|-------------------|
------------------------------------|-------------------|-------------------|
------------------------------------|-------------------|-------------------|
------------------------------------|-------------------|-------------------|
--2----------------L----------------|-------------------|-------------------|
--0----------------L----------------|-------------------|-------------------|
------------------------------------|-------------------|-------------------|


http://www.throwntothesun.com/
Tap to rate this tab
 
# A B C D E F G H I J K L M N O P Q R S T U V W X Y Z