Song name
# A B C D E F G H I J K L M N O P Q R S T U V W X Y Z

Thrown To The Sun - Adrift tab

Thrown to the Sun
Adrift 
Ahmet Saracoglu/Bahadir Sarp

http://www.throwntothesun.com



     E  S E.  E  E  S S E  S E.  E  E  S S  
D||----------------------------------------|
A||----------------------------------------|
F||----------------------------------------|
C||--5--5-4-------------7--7-4-------------|
G||--7--7-7-------------3--3-3-------------|
D||-----------0--0--0-0----------0--0--0-0-|


  S S E  S S E  S S S S S S S S S S E  S S S S  
-----------------------------------------------|
-----------------------------------------------|
------0----------------------------------------|
--7-------------------------------0-5--5-5-5-5-|
----9-------------------2-0---0-2---3--3-3-3-3-|
---------0-0-0--0-0---0-----3-------3--3-3-3-3-|


  E  S S S S E  S S S S S   S E  S S E  S S S S    E  E  E   
------------------------------------------------|-----------|
------------------------------------------------|-----------|
------------------------------------------------|-----------|
--5--5-5-5-5-9--9-9-9-9-9s-10-9--7-5------------|-----------|
--3--3-3-3-3-------------------------2----------|--7--------|
--3--3-3-3-3-7--7-7-7-7-7s--8-7--5-3-0--0-0-0-0-|-----0--0--|


----

Last Verse:

  E  S E.  E  E  S S E  S E.  E  E  S S  
----------------------------------------|
----------------------------------------|
----------------------------------------|
--5--5-4-------------7--7-4-------------|
--7--7-7-------------3--3-3-------------|
-----------0--0--0-0----------0--0--0-0-|


  S S E  S S E  S S S S S S S S S S E  S S S S  
-----------------------------------------------|
-----------------------------------------------|
------0----------------------------------------|
--7-------------------------------0-5--5-5-5-5-|
----9-------------------2-0---0-2---3--3-3-3-5-|
---------0-0-0--0-0---0-----3-------3--3-3-3-3-|


  E  S S S S E  S S S S E  S S S S E  S S S S  
----------------------------------------------|
----------------------------------------------|
----------------------------------------------|
--5--5-5-5-5-9--9-9-9-9-9--9-9-9-7-5--5-5-5-5-|
--3--3-3-3-3-----------------------3--3-3-3-3-|
--3--3-3-3-3-7--7-7-7-7-7--7-7-7-5-3--3-3-3-3-|



  E  S S S S E  S S S S S   S E  S S Q    E     W                H         
---------------------------------------------|----------------------------|
---------------------------------------------|----------------------------|
---------------------------------------------|----------------------------|
--5--5-5-5-5-9--9-9-9-9-9s-10-9--7-5-2----L--|--L----------------L--------|
--3--3-3-3-3-------------------------2----L--|--L----------------L--------|
--3--3-3-3-3-7--7-7-7-7-7s--8-7--5-3-0----L--|--L----------------L--------|


  W                H               
----------------------------|----||
----------------------------|----||
----------------------------|----||
--L----------------L--------|----||
--L----------------L--------|----||
--L----------------L--------|----||




Duration Legend
---------------
W - whole
H - half
Q - quarter
E - 8th
S - 16th
T - 32nd
X - 64th
. - note dotted
|-n-|  - n-tuplets


Tablature Legend
----------------
L - tied note
x - dead note
g - grace note
(n) - ghost note
> - accentuded note
NH - natural harmonic
AH - artificial harmonic
TH - tapped harmonic
SH - semi harmonic
PH - pitch harmonic
h - hammer on
p - pull off
b - bend
br - bendRelease
pb - preBend
pbr - preBendRelease
brb - bendReleaseBend
\n/ - tremolo bar dip
\n - tremolo bar dive
-/n - tremolo bar Release up
/n\ - tremolo bar inverted dip
/n - tremolo bar return
-\n - tremolo bar Release down
S - shift slide
s - legato slide
/ -  slide into from below or out of upwards
\ -  slide into from above or out of downwards
~ - vibrato
W - wide vibrato
tr - trill
TP - tremolo picking
T - tapping
S - slap
P - pop
< - fade in
^ - brush up
v - brush down



http://www.throwntothesun.com
Tap to rate this tab
 
# A B C D E F G H I J K L M N O P Q R S T U V W X Y Z