Song name
# A B C D E F G H I J K L M N O P Q R S T U V W X Y Z

Thugg Life - Thugga James tab

Intro x1
e-----0-------------0---------------0---------------0--------------0--------------0--------0-|
b---3---3---------3---3-----------2---2-----------2---2----------2---2----------3---3------3-|
g-2-------------0--------------2----------------0--------------3--------------2--------------|
d--------------------------------------------------------------------------------------------|
a--------------------------------------------------------------------------------------------|
e--------------------------------------------------------------------------------------------|

Verse x4
-------------------------------------------------------------------|
------------1----1-1-1-1-1---------1-1-1-1-1-----------------------|
------------2----2-2-2-2-2---------2-2-2-2-2-----------------------|
------------2----2-2-2-2-0---------0-0-0-0-2-----------------------|
-------------------------------------------------------------------|
Chorus x2
---------------------------------------33---3-3-3-3----------------|
-------------11---1-1-1-1-11---1-1-1-1-----------------------------|
-------------22---2-2-2-2---------------------------11----1-1-1-1--|
-------------22---2-2-2-2-22---2-2-2-2-----------------------------|
--------------------------33---3-3-3-3-22---2-2-2-2-22----2-2-2-2--|
---------------------------------------33---3-3-3-3----------------|
Intro
Verse
Chorus
Verse
This is just the slow part of the song
all clean
Tap to rate this tab
# A B C D E F G H I J K L M N O P Q R S T U V W X Y Z