Song name
# A B C D E F G H I J K L M N O P Q R S T U V W X Y Z

Thunder - Better Man tab

THUNDER   - BETTER MAN
ALBUM     - BACKSTREET SYMPHONY
TABBED BY - sunshine lover


Intro. (Acoustic guitar throughout)

Rhythm Fig 1

This is not standard tuning so it may not sound right played with the cd, however its 
on its own. You'll have to improvise with the strumming patterns and try to create 
muting sounds when you can. Enjoy!!!

  G               D/F#            Em
--3----3--3--3----2----2--2--2--|--0---0---0---0-0-0-0-0-|
--3----3--3--3----3----3--3--3--|--0---0---0---0-0-0-0-0-|
--0----0--0--0----2----2--2--2--|--0---0---0---0-0-0-0-0-|
--0----0--0--0----0----0--0--0--|--2---2---2---2-2-2-2-2-|
--2----2--2--2----0----0--0--0--|--2---2---2---2-2-2-2-2-|
--3----3--3--3----3----3--3--3--|--0---0---0---0-0-0-0-0-|
                  T

 F                C                C   A/C#  Am   G
-1-----1--1--1----0----0--0--0--|--0--------------3------|
-1-----1--1--1----1----1--1--1--|--1----0----1----3------|
-2-----2--2--2----0----0--0--0--|--0----0----2----0------|
-3-----3--3--3----2----2--2--2--|--2----0----2----0------|
-3-----3--3--3----3----3--3--3--|--3----2----0----2------|
-1-----1--1--1----0----0--0--0--|--0--------------3------|


When your loving walked right over me like the tide.
-------------------------------------------------0-----------3----|
-------------------------------------------------1---0---1---3----|
-------------------------------------------------0---0---2---0----|
-------------------------------------------------3---0---2---0----|
-------------------------------------------------3---2---0---2----|
-------------------------------------------------------------3----|

And now I believe in love                 I believe in love  your the
-------------2-------------3-------------2----------------3----------|
-------------3-------------3-------------3----------------3----------|
-------------2-------------2-------------2----------------2----------|
-------------0-------------0-------------0----------------0----------|
-------------0-------------0-------------0----------------0----------|
---------------------------------------------------------------------|

reason why I can                         Cause when I  look at  my -
-0-----------------------1----------0----------------|--3---------------|
-1-----------------------1----------1----------------|--3---------------|
-0-----------------------2----------0----------------|--0---------------|
-2-----------------------3----------2----------------|--0---------------|
-3-----------------------3----------3----------------|--2---------------|
-0-----------------------1----------0----------------|--3---------------|

- self in the   mirror        I see a better man                a better.
--1-----------|---0---------1-------------------|--3-----0-----2----------|
--1-----------|---1---------3-------------------|--3-----1-----3----------|
--2-----------|---0---------2-------------------|--0-----0-----2----------|
--3-----------|---2---------0-------------------|--0-----2-----0----------|
--3-----------|---3-----------------------------|--2-----3-----0----------|
--1-----------|---0-----------------------------|--3-----0----------------|

 man         yes its hard finding words that can say how I feel about
--3----0----2---------0---------------------------0-------0--------3--|
--3----1----3---------1---------------------------1-------1--------3--|
--0----0----2---------0---------------------------0-------0--------0--|
--0----2----0---------2---------------------------3-------2--------0--|
--2----3----0---------3---------------------------3-------3--------2--|
--3----0--------------0---------------------------0-------0--------3--|

you     I don't care if it sounds like another old cliche   but I
----1------------0---------------------0------------2------------|
----1------------1---------------------1------------3------------|
----2------------0---------------------0------------2------------|
----3------------2---------------------3------------0------------|
----3------------3---------------------3------------0------------|
----1------------0---------------------0-------------------------|

 can't stand the thought of living my life without you for even a day
-0--------------------------3-----------------2------------------1----0-|
-1--------------------------3-----------------3------------------1----1-|
-0--------------------------0-----------------2------------------2----0-|
-2--------------------------0-----------------0------------------3----2-|
-3--------------------------2-----------------0------------------3----3-|
-0--------------------------3------------------------------------1----0-|


This next bit is played during the harmonica solo thing
-0-------------3--|
-1---0----1----3--|
-0---0----2----0--|
-2---0----2----0--|
-3---2----0----2--|
-0-------------3--|

And now I believe in love                 I believe in love  your the
-------------2-------------3-------------2----------------3----------|
-------------3-------------3-------------3----------------3----------|
-------------2-------------2-------------2----------------2----------|
-------------0-------------0-------------0----------------0----------|
-------------0-------------0-------------0----------------0----------|
---------------------------------------------------------------------|

reason why I can                         Cause when I  look at  my -
-0-----------------------1----------0----------------|--3---------------|
-1-----------------------1----------1----------------|--3---------------|
-0-----------------------2----------0----------------|--0---------------|
-2-----------------------3----------2----------------|--0---------------|
-3-----------------------3----------3----------------|--2---------------|
-0-----------------------1----------0----------------|--3---------------|

- self in the   mirror      oh baby when I  look at myself in the mirror
--1-----------|---0------------------------|--3-----1---------------0-----|
--1-----------|---1------------------------|--3-----1---------------1-----|
--2-----------|---0------------------------|--0-----2---------------0-----|
--3-----------|---2------------------------|--0-----3---------------2-----|
--3-----------|---3------------------------|--2-----3---------------3-----|
--1-----------|---0------------------------|--3-----1---------------0-----|

     when I'm looking at myself    in the mirror
--1-----------3-----------1---------------0---0----1----|
--3-----------3-----------1---------------1---1----3----|
--2-----------0-----------2---------------0---0----2----|
--0-----------0-----------3---------------2---2----0----|
--0-----------2-----------3---------------3---3----0----|
--------------3-----------1---------------0---0---------|

I see a better man
----------------------------3---3---0-0---0-2-----------------||
----------------------------3---3---0-1---0-3-----------------||
----------------------------0---0---0-2---0-2-----------------||
----------------------------0---0---0-0---0-0-----------------||
----------------------------2---2---0-3---0-0-----------------||
----------------------------3---3---0-0---0-0-----------------||

and there it is, another classic thunder hit!!!!!

plenty more thunder tabs to come as their shamefully aint many on here

tabbed by sunshine lover
Tap to rate this tab
# A B C D E F G H I J K L M N O P Q R S T U V W X Y Z