Song name
# A B C D E F G H I J K L M N O P Q R S T U V W X Y Z

Thunder - Loser tab

This is a very under-rated song from a very under-rated band and seen as there aren't 
tabs for it
around here, I thought I'd do one myself. Enjoy and rate accordingly (it's my first 
Sorry about the solo, I'll
add it once I've got it down properly.

INTRO

You need to repeatedly bash the 1st, 4th, 5th and 6th chords. If you know the song then 
should be able to work it out.

E-------------------------------------------|
B-------------------------------------------|
G--7----------7--5--3-----------------------|
D--7----------7--5--3---------5-----7-------|
A--5----------5--3--1---------5-----7-------|
E-----------------------------3-----5-------|

This is what Luke Morley plays over the normal riff just before Danny comes in with the 
He also plays it quite near
the end before playing that monster riff for one last time.
E-------------------------------------------|
B---------------------5--7--5---------------|
G---7-----5-----5--7------------7----7----5-|
D-------------------------------------------|
A-------------------------------------------|
E-------------------------------------------|


VERSE

E---------------------------------------------------------------|
B---------------------------------------------------------------|
G--5--S--7-7-7-7----5--S--7-7-7-7--------0--3-3-3-3---0-3-3-3-3-|
D--5--S--7-7-7-7----5--S--7-7-7-7--------0--3-3-3-3---0-3-3-3-3-|
A--3--S--5-5-5-5----3--S--5-5-5-5--------0--1-1-1-1---0-1-1-1-1-|
E---------------------------------------------------------------|


E-----------------------------------------------------------------------|
B-----------------------------------------------------------------------|
G--5--S--7-7-7-7----5--S--7-7-7-7----------------0--3-3-3-3---0-3-3-3-3-|
D--5--S--7-7-7-7----5--S--7-7-7-7----------------0--3-3-3-3---0-3-3-3-3-|
A--3--S--5-5-5-5----3--S--5-5-5-5----5-4-3-2-1---0--1-1-1-1---0-1-1-1-1-|
E-----------------------------------------------------------------------|

E-----------------------------------------------------------------------|
B-----------------------------------------------------------------------|
G-----------------------------------------------------------------------|
D-3--5-5-5-5---3--5-5-5-5------7--10-10-10-10---7--10-10-10-10----11----|
A-3--5-5-5-5---3--5-5-5-5------7--10-10-10-10---7--10-10-10-10----11----|
E-1--3-3-3-3---1--3-3-3-3------5--8--8--8--8----5--8--8--8--8-----9-----|

E-----------------------------------------------------------------------|
B-----------------------------------------------------------------------|
G--5--S--7-7-7-7----5--S--7-7-7-7----------------0--3-3-3-3---0-3-3-3-3-|
D--5--S--7-7-7-7----5--S--7-7-7-7----------------0--3-3-3-3---0-3-3-3-3-|
A--3--S--5-5-5-5----3--S--5-5-5-5----5-4-3-2-1---0--1-1-1-1---0-1-1-1-1-|
E-----------------------------------------------------------------------|

BRIDGE

E------------------------------------------|
B------------------------------------------|
G------------------------------------------|      X 2
D---------5---------8-----------10---------|
A-------5---5-----8---8------10----10------|
E------3--------6---------8----------------|

CHORUS

E--------------------------------------------------|
B--------------------------------------------------|
G--7---3-----------------7---3------5--6-----------|
D--7---3---3---5---7-----7---3---5--5--6-----------|
A--5---1---3---5---7-----5---1---5--3--4-----------|
E----------1---3---5-------------3-----------------|


E-----------------------------------------------|
B-----------------------------------------------|
G-----------------------------------------------|
D------7-------10--------12--------10-----7-----|
A----7------10--------12--------10--------7-----|
E--5------8--------10---------8-----------5-----|


Organ part for guitar, fairly uncomplicated - This sound good with some flanger on it.


E----------------------------|
B----------------------------|
G----------------------------|
D-7---7--8--7--5--7----------|
A----------------------------|
E----------------------------|


E------------------------------------------|
B------------------------------------------|
G------------------------------------------|
D-7--5--3--2-------------------------------|
A-------------5--4-------------------------|
E-------------------6--3--5--6--5--3--5----|

Lyrics:
Now I know you don't love me baby
You're just trying to find a friend

Darling don't deny
You're a beauty in anybody's eyes
I'm in the gutter and you're in the skies
Shining like a star

Baby don't be cruel
'Cause if you drag me into loving you
My poor heart would surely break in two
And that's a chance I can't take

So don't think I'm stupid, but I don't understand
Why you're talking to me and holding my hand

What d'you want with a loser like me?
'Cause I'm so confused
Look at any other man and you'll see
That I was born to lose
This ain't reality
'Cause I ain't ever fit to shine your shoes
I'm just a loser with the blues

Darling, think again
'Cause you don't love me, you're just trying to find a friend
You're on the rebound and this is bound to end
So set yourself free

You can sit there smiling and laugh it all away
But I'll be here crying when you leave me someday

What d'you want with a loser like me
When the world's in your hands?
When I think of all you could be
And I'm just a fool without a plan
Is there nothing I can say?
Got to make you try and understand

What d'you want with a loser like me?
'Cause I'm so confused
Look at any other man and you'll see
That I was born to lose
This ain't reality
I'm just a loser with the blues

What d'you want with a loser like me
When the world's in your hands?
When I think of all you could be
And I'm just a fool without a plan
Is there nothing I can say?
Got to make you try and understand
I'm just a loser in a band, mmm
Just a loser in a band
Tap to rate this tab
 
# A B C D E F G H I J K L M N O P Q R S T U V W X Y Z