Song name
# A B C D E F G H I J K L M N O P Q R S T U V W X Y Z

Thunder - Memories tab

|--------5---------5-------6---------6---------7----------7-------6----------6|
|------------6----------------6-------------------6------------------6--------|
|---------------5----------------5--------------------5------------------5----|
|-----------------------------------------------------------------------------|
|-----------------------------------------------------------------------------|
|-----------------------------------------------------------------------------|
     

REPEAT THIS TWO TIMES...
AND THENA RE THE CHORDS COMMING: C  F  C  D  C  F  C  D


|--------5---------5-------6---------6---------7----------7-------6----------6|
|------------6----------------6-------------------6------------------6--------|
|---------------5----------------5--------------------5------------------5----|
|-----------------------------------------------------------------------------|
|-----------------------------------------------------------------------------|
|-----------------------------------------------------------------------------|

AND THIS IS IN THE WHOLE SONG AND THE CHOURS:C  F  C  D  C  F  C  D Am G F C Am G F C THE END
Tap to rate this tab
# A B C D E F G H I J K L M N O P Q R S T U V W X Y Z