Thunder - Dirty Dream tab

okay the other tab for this song is wrong but please could u tell me if this is any better

Intro

e-----3-2--------4-3-----------------------|
b-----3-3--------4-4-----------------------|
g------------------------------------------|
d-2-2-------2-2--------3-------5~----------|
a-2-2-------2-2--------3-------5~----------|
e-0-0-------0-0--------1-------3~----------|

bridge

e-------------------------------------------------------|
b------------------1--1---------------------------------|
g------5-----3--3-2----3----------5---------------------|
d-3-3--5-7-5-3-3--------1---------5---------------------|
a-3-3--3-7-5-1------------3~3\----3---------------------|
e-1-1----5-3--------------------------------------------|

verse

g------------------------|
b------------------------|
g-----5-5-3-3------  x 2-|
d-5-5-5-5-3-3------------|
a-5-5-3-3-1-1------------|
e-3-3--------------------|

e-----3-2--------4-3------------------------|
b-----3-3--------4-4------------------------|
g-------------------------------------------|
d-2-2-------2-2-----------------------------|
a-2-2-------2-2-----------------------------|
e-0-0-------0-0---------3~3\----------------|

chorus

G, C, A#, f, f x 4


im sorry i dont know how to do the solo yet but hopefully ill give a response soon :D 
rate this (btw im 14 :L:L i saw in luke morleys inter view "a fanbase between 16 and 60" 
i guees im the one off ;)
Tap to rate this tab
 
# A B C D E F G H I J K L M N O P Q R S T U V W X Y Z