Song name
# A B C D E F G H I J K L M N O P Q R S T U V W X Y Z

Thunder - Shes So Fine tab

Intro and played throughout

e|---------------------------------------------------------------------------|
B|---------------------------------------------------------------------------|
G|---------------------------------------------------------------------------|
D|-2------2----2------2-2----2-2---------------------------------------------|
A|-0-h3p0-0----0-h3p0-0-3-p0-0-3---------------------------------------------|
E|---------------------------------------------------------------------------|

e|---------------------------2------------------------------------------------|
B|---------------------------3------------------------------------------------|
G|---------------------------2------------------------------------------------|
D|-2------2----2------2-2-----------------------------------------------------|
A|-0-h3p0-0----0-h3p0-0-3-p0--------------------------------------------------|
E|----------------------------------------------------------------------------|

e|---------------------------------------------------------------------------|
B|---------------------------------------------------------------------------|
G|---------------------------------------------------------------------------|
D|-2------2----2------2-2----2-2---------------------------------------------|
A|-0-h3p0-0----0-h3p0-0-3-p0-0-3---------------------------------------------|
E|---------------------------------------------------------------------------|

e|---------------------------------------------------------------------------|
B|---------------------------------------------------------------------------|
G|--------------------2-------------------------------------------------------|
D|-2------2----2------2------------------------------------------------------|
A|-0-h3p0-0----0-h3p0-0------------------------------------------------------|
E|---------------------------------------------------------------------------|

This is a great song, sound's good on acoustic but real tasty on the electric.
Tap to rate this tab
# A B C D E F G H I J K L M N O P Q R S T U V W X Y Z