Guitaretab - guitar tabs
Song name
# A B C D E F G H I J K L M N O P Q R S T U V W X Y Z

Thunderbirds Are Now - Pink Motorcycle Helmet tab

Heres one of my fav bands... not much people know them but a few indie kids should. good stuff

Intro and Verse Riff
-------------------------------------------------|
10-10--------10----------------------------------|
------7-10-7----7-7-10-7--55-6-7--12-12-12-12-10-|
-------------------------------------------------|
-------------------------------------------------|
-------------------------------------------------|
[ Tab from: http://www.guitaretab.com/t/thunderbirds-are-now/51471.html ]
The interlude thing..
--------------------------------------------------|
--------------------------------------------------|
-----------------------12-12-12-12-12-10----------|
------------------1x---10-10-10-10-10-10--2x------|fast
--------------5-5------0--0--0--0--0--0-----------|
--55-88-55--8-------------------------------------|
just bass i think...then guitar does something like that

Verse riff for awhile

interlude again

Outro just bass for a bit, then you play this
--------------------------------------------------------|
-----------------------------14~15~---------17--17--17--|
---7-7-10-5-7-7-10-5--12~~4x--------2/3x----0---0---0---|
--------------------------------------------------------|
--------------------------------------------------------|
--------------------------------------------------------|
its hard to hear the last parts but hes fiddling around something like that

Interlude again then end

not a perfect tab but it gives you a good idea the tabbing ryhtms not right at all but 
listen to the song... and yea i just tabbed this cause there is no thunderbirds are now! 
and Ug needs some
Related for Pink Motorcycle Helmet tab
Advertisement will be closed in 10 seconds