Song name
# A B C D E F G H I J K L M N O P Q R S T U V W X Y Z

Thunderhead - Behind The Eight Ball tab

		-Behind The Eight Ball-
		    -Thunderhead-
		From the album "Behind the eight ball"
			Guitar tuned D#
		tabbed by rockman85(rockman85@jippii.fi)

There's first tab for this band. Sad but true this legend is not exist anymore.

Intro:

e------I----------------------------------------I-----------|
 ------I----------------------------------------I-----------|
 ------I----------------------------------------I-----------|
 ------I------------------2-----------------4---I-----------|
 ------I------------------0-----------------2---I---4/------|  <--- At last
E-12/--I----0h2-22-0h2-22-----0h2-22-0h2-22-----I---2/------|       time
                                                                    add this
There's no guitars during the verses.

Bridge:

e-------I-------------------------------------------|
 -------I-------------------------------------------|
 -------I-------------------------------------------|
 -------I-----------------2-----------------4-------|
 -------I-----------------0-----------------2-------|
E-2/12/-I--0h2-22-0h2-22-----0h2-22-0h2-22----------|


Chorus:

e-----------------------------------------------------|
 -----------------------------------------------------|
 -----------------------------------------------------|
 ----7--11--9/----------------------------------------|
 ----5---9--7/----------------------------------------|
E-----------------------------------------------------|

Under solo:
This is the one I can't figure out so I play this kind of riff but hey, it's called 
;)
e-------------------------------------------------------------------|
 -------------------------------------------------------------------|
 -------------------------------------------------------------------|
 ------------------------------4---------4--------------------------|
 ----------------------4-4-4-4-2-4-4-4-4-2--------------------------|
E---222222222222222----2-2-2-2---2-2-2-2----------------------------|
p.m.................

End:

e----------------------------------------------|
 ----------------------------------------------|
 ----------------------------------------------|
 ----------------------------------------------|
 ----4-()--------------------------4/----------|
E----2-()-----0h2-22-0h2-22 0h2-22-2/----------|

The song goes like that:

Intro 4x
Verse (no guitars)
Bridge 2x
Chorus 1x
Bridge 1x
Chorus 1x
Intro 3x
Verse (no guitars)
Bridge 2x
Chorus 1x
Bridge 1x
Chorus 1x
Bridge 1x
Solo (there's 2nd guitar that plays solo riff several times, if you figure it out put it here)
Bridge 4x
Chorus 1x
Bridge 1x
Chorus 1x
Bridge 1x
Chorus 1x
End

()= let ring
This is very easy song to play, but I think there's maybe few mistake,
please let me know if you find them. Listen the song to timing.

There's a link to the website of this band: http://www.the-headquarters.de/
(It's not official because there's not exist official site of this band
and this band is not exist anymore :(
Tap to rate this tab
 
# A B C D E F G H I J K L M N O P Q R S T U V W X Y Z