Song name
# A B C D E F G H I J K L M N O P Q R S T U V W X Y Z

Thundra - Inner Struggle tab

Warning!!! Its in Standard Tuning


|-12-------------------------------------|
|---------12------10---12--12^13--12-----|
|----------------------------------------|
|----------------------------------------|
|----------------------------------------|
|----------------------------------------|

|----------------------------------12--14--15--14--12--|
|-13--12--10--12--13----------12-----------------------|
|-----------------------12-----------------------------|
|------------------------------------------------------|
|------------------------------------------------------|
|------------------------------------------------------|

|----------------------------------------------|
|-13-12-13-12-10-12-12^13-12-10--12-12^13-12---|
|----------------------------------------------|
|----------------------------------------------|
|----------------------------------------------|
|----------------------------------------------|

|------------------10--------------------------10---12--|
|--------10-12-13-----12-13-12-10-10^12----13-----------|
|9-11-12------------------------------------------------|
|-------------------------------------------------------|
|-------------------------------------------------------|
|-------------------------------------------------------|
Tap to rate this tab
 
# A B C D E F G H I J K L M N O P Q R S T U V W X Y Z