Song name
# A B C D E F G H I J K L M N O P Q R S T U V W X Y Z

Thursday - Unintented Long Term Effects tab

-----------------------------------------------------------------
            Unintended Long Term Effects - Thursday
-----------------------------------------------------------------
Tabbed by: Kristyn Lee
Email: spot_the_village_loony_836@hotmail.com

Tuning: Drop D

Intro  guitar 1
e|-----------------------------------------------------------|
B|-----------------------------------------------------------|
G|-----------------------------------------------------------|
D|-----------------------------------------------------------|
A|-5p0-5p0-55p0-5p0-5p0-55p0-5/7-7p0-77p0-7p0-7p0-77p0-7/8---|
D|-----------------------------------------------------------|

e|-------------------------------------------------------------------|
B|-------------------------------------------------------------------|
G|--------------------------------------------------/15151515\141414-|
D|---------------------------------------------------x-x-x-x--x-x-x--|
A|--8p0-8p0-88p0-8p0-8p0-88p0-8/10-10p0-10p0-10p0-10/13131313\121212-|
D|-------------------------------------------------------------------|
guitar 2
e|------------------------------------------------|
B|------------------------------------------------|
G|-7~-7/9\6~---7~--121212121212-15151515-141414---|
D|-x--x-x-x----x---x-x-x-x-x-x--x-x-x-x--x-x-x----|
A|-5~-5/7\4~---5~--101010101010-13131313-121212---|
D|------------------------------------------------|
verse
e|----------------------------------------|
B|----------------------------------------|
G|-------151515------151515--101010-999---|x3
D|--000--x-x-x--000--x-x-x---x-x-x--xxx---|
A|--000--131313-000--131313--8-8-8--777---|
D|--000---------000-----------------------|

e|---------------------------------------------------------|
B|---------------------------------------------------------|
G|------151515------151515--12/14\10/12\9-18181818/19------|x1
D|--000-x-x-x---000-x-x-x---x--x--x--x--x-x-x-x-x--x-------|
A|--000-131313--000-131313--10/12\8-/10\7-16161616/17------|
D|--000---------000----------------------------------------|

Chorus   guitar 1
e|---------------------------------------------------------|
B|---------------------------------------------------------|
G|---------------------------------------------------------|
D|--0000--88--77-----0000--88--77--------------------------|
A|--0000--88--77-----0000--88--77--------------------------|
D|--0000--88--77-----0000--88--77--------------------------|
         guitar 2
e|---------------------------------------------------------|
B|---------------------------------------------------------|
G|--------15-14-12---7-8-5~---15--12--7-8-5-7~-------------|
D|--------x--x--x-------------x---x------------------------|
A|--------13-12-10------------13--10-----------------------|
D|---------------------------------------------------------|

verse
e|----------------------------------------|
B|----------------------------------------|
G|-------151515------151515--101010-999---|x1
D|--000--x-x-x--000--x-x-x---x-x-x--xxx---|
A|--000--131313-000--131313--8-8-8--777---|
D|--000---------000-----------------------|

e|---------------------------------------------|
B|---------------------------------------------|
G|-------151515------151515---12/14-10/12-9~---|x1
D|--000--x-x-x--000--x-x-x----x--x--x--x--x----|
A|--000--131313-000--131313---10/12-12/10-7~---|
D|--000---------000----------------------------|

e|------------------------------------------------------|
B|------------------------------------------------------|
G|----151515-----151515-----101010999-------------------|x1
D|----x-x-x------x-x-x------x-x-x-xxx-------------------|
A|--0-131313-000-131313-00--8-8-8-777-------------------|
D|--0--------000--------00------------------------------|
             ...        ..
e|---------------------------------------------------------|
B|---------------------------------------------------------|
G|------151515------151515--12/14\10/12\9-18181818/19------|x1
D|--0---x-x-x---0---x-x-x---x--x--x--x--x-x-x-x-x--x-------|
A|--0---131313--0---131313--10/12\8-/10\7-16161616/17------|
D|--0-----------0------------------------------------------|


Repeat chorus x2

1:25   let each chord ring
e|-----------------------|
B|-----------------------|
G|--7--9--10-12--15-14---|
D|--x--x--x--x---x--x----|
A|--5--7--8--10--13-12---|
D|-----------------------|

1:36
e|------------------------------------------------------------|
B|------------------------------------------------------------|
G|-7-xxx-7-xxx-7-xxx-7-xxx-7/9-9-xxx-9-xxx-9-xxx-9-xxx-9/10---|
D|-x-xxx-x-xxx-x-xxx-x-xxx-x-x-x-xxx-x-xxx-x-xxx-x-xxx-x-x----|
A|-5-xxx-5-xxx-5-xxx-5-xxx-5/7-7-xxx-7-xxx-7-xxx-7-xxx-7/8----|
D|------------------------------------------------------------|

e|----------------------------------------------------------------|
B|----------------------------------------------------------------|
G|-10-xxx--10-xxx-10-xxx-10-xxx-10/1212121212-15151515-14141414---|
D|-x--xxx--x--xxx-x--xxx-x--xxx-x--x-x-x-x-x--x-x-x-x--x-x-x-x----|
A|-8--xxx--8--xxx-8--xxx-8--xxx-8/-1010101010-13131313-12121212---|
D|----------------------------------------------------------------|
1:48
e|---------------------------------|
B|---------------------------------|
G|--7--6/7/9--7/9/10--9/10/12-\6---|x2
D|--x--x-x-x--x-x-x---x-x--x---x---|
A|--5--4/5/7--5/7/8---7/8-/10-\4---|
D|---------------------------------|

outro
e|------------------------------------------------------------------|
B|------------------------------------------------------------------|
G|--15-15p0-12-12p0-14p0-15-15p0-15p14p12--15p0-15p0-12-12p0-14p0---|
D|------------------------------------------------------------------|
A|------------------------------------------------------------------|
D|------------------------------------------------------------------|

e|-----------------|
B|-----------------|
G|--10p0-10p9p7----|
D|-----------------|
A|-----------------|
D|-----------------|


| .  palm mute
| /  slide up
| \  slide down
| h  hammer-on
| p  pull-off
| ~  vibrato
| +  harmonic
| +  harmonic
| x  Mute note
====================================================================
Tap to rate this tab
 
# A B C D E F G H I J K L M N O P Q R S T U V W X Y Z