Song name
# A B C D E F G H I J K L M N O P Q R S T U V W X Y Z

Thursday - This Song Brought To You By A Falling Bomb tab

This Song Brought to you by a Falling Bomb

tuning standard

gtr1(piano arranged for gtr.)

|------------------------------
|-7---7---7---7---7---7--------
|-8---8---8---8---8---8--------
|---9---9---6---6---8---8------
|------------------------------
|------------------------------

|------------------------------
|-7---7---7---7---7---7--------
|-8---8---8---8---8---8--------
|---9---9---6---6---8---8------
|------------------------------
|------------------------------

|------------------------------
|-7---7---7---7---7---7--------
|-8---8---8---8---8---8--------
|---9---9---6---6---8---8------
|------------------------------
|------------------------------

|------------------------------
|-7---7---7---7---7---7--------
|-8---8---8---8---8---8--------
|---9---9---6---6---8---8------
|------------------------------
|------------------------------
Tap to rate this tab
# A B C D E F G H I J K L M N O P Q R S T U V W X Y Z