Song name
# A B C D E F G H I J K L M N O P Q R S T U V W X Y Z

Thursday - This Song Is Brought To You By A Falling Bomb Acoustic tab

"This Song Is Brought To You By A Falling Bomb" Acoustic

Tabbed by me (Cadd99)

This is the closest you're going to get to the real piano version of the song on a guitar.

Tuning: 1/2 step down Drop C (B-Ab-Db-Gb-Bb-Eb)

Chords used:

     C/C           Am           Em
|-----0------------0-------------0-----------|
|-----1------------1-------------0-----------|
|-----0------------0-------------0-----------|
|-----2------------2-------------2-----------|
|-----3------------0-------------2-----------|
|-----0--------------------------------------|

Play this throughout the whole song:

   C/C
|------0-------0-------0---0---0-----|
|----1---1---1---1---0---0---0---0---|
|--0~------0~------0~----------------|
|--2~------2~------2~----------------|
|--3~------0~------2~----------------|
|--0~--------------------------------|
Tap to rate this tab
# A B C D E F G H I J K L M N O P Q R S T U V W X Y Z