Song name
# A B C D E F G H I J K L M N O P Q R S T U V W X Y Z

Thursday - Ny Batteri tab

Thursday
Ny Batteri

This is a great Sigur Ros cover by the greatest band of all time, Thursday. Its extemely 
too. Thanks for looking

Dropped D Tuning

e|-------------------------------------------------------------------------|
b|-------------------------------------------------------------------------|
g|-------------------------------------------------------------------------|
d|-------------------------------------------------------------------------|
a|------9-------9--------7h9-------9-------9-------7h9---------------------|
d|---9------9-------9----------9-------9-------9---------9-----------------|

e|-------------------------------------------------------------------------|
b|-------------------------------------------------------------------------|
g|-------------------------------------------------------------------------|
d|-------------------------------------------------------------------------|
a|------5-------5----------5------5----------------------------------------|
d|--5-------5--------0--5-----5--------------------------------------------|
Thats pretty much it, it repeats throughout the enitre song
Any questions or comments e-mail me dac2590@hotmail.com
ENJOY
Tabbed by: Dave
Tap to rate this tab
# A B C D E F G H I J K L M N O P Q R S T U V W X Y Z