Song name
# A B C D E F G H I J K L M N O P Q R S T U V W X Y Z

Thursday - Where The Circle Ends tab

the first guitar you hear is..
                                           (play through song)
e|----0---0---0---0---0---5---5--0--------------------------------------|
b|--6---6---6---6---6---6---6-------------------------------------------|
g|----------------------------------------------------------------------|
d|----------------------------------------------------------------------|
a|----------------------------------------------------------------------|
d|----------------------------------------------------------------------|

-----------------------------------------------------------------------------

the second guitar comes in..
e|--------------------------------------------------------------------|
b|--------------------------------------------------------------------|
g|-9~~~--8h9--8---------------------------9~~--8h9--8----12~----------|
d|-0~~~---------9----------9----9h12------0~~----------9--------------|
a|-0~~~------------12~--12---12-----------0~~-------------------------|
d|-0~~~--------------------------------0~-----------------------------|


its pretty easy from there on, you barley have you move your fretting hand at all.
Tap to rate this tab
# A B C D E F G H I J K L M N O P Q R S T U V W X Y Z