Song name
# A B C D E F G H I J K L M N O P Q R S T U V W X Y Z

Thursday - Running From The Rain tab

Help us improve GuitareTab! Take a short survey!
Thursday
"Running From The Rain"
A City By The Light Divided



Intro/Verse

Guitar 1
Heavy Doubling effect (If you don't have the means tremolo picking is a good atlernative)
E|--------------------------------------------------------------------|
B|-----------10-10-10-10-10-10-10-10-15-15-15-15-15-15-15-15-5555555--|
G|-/777777777---------------------------------------------------------|
D|--------------------------------------------------------------------| X4
A|--------------------------------------------------------------------|
D|--------------------------------------------------------------------|
                                               *     |  (Left off last time)
E|---------------------------------------------------|------------------------------------------------|
B|---------10-10-10-10-10-10-10-15-15-15-17-17(b)----|-------------------------------10-10-10-10-8888-|
G|-7777777-------------------------------------------|----77777777-66666666-44444444------------------|
D|---------------------------------------------------|------------------------------------------------|
A|---------------------------------------------------|------------------------------------------------|
D|---------------------------------------------------|------------------------------------------------|
*play last time
Guitar 2
Same Doubling Effect used
E|---| 
B|---|
G|-5-|
D|-X-|
A|-7-|
D|---|
Chord used for buildup before lead comes in. It sounds quite similar to the lead
but you can hear the 2nd guitar slide in. It then becomes buried in the mix until:

With Delay

E|------------------------|
B|------------------------|
G|-77-------14-14-14------|
D|-77-------14-14----14---|
A|-55-------12-12---------|
D|------------------------|


Chorus

Guitar 1 (Still doubling) Guitar 2 (Distorted)

E|-------------------------|
B|-------------------------|
G|-------------------------|
D|-0-0-00-2222-7-7-77/9999-|
A|-0-0-00-2222-7-7-77/9999-|
D|-0-0-00-2222-7-7-77/9999-|

Bridge

"It's running on, on, on"

Guitar 1 

E|--------------------|
B|--------------------|
G|--------------------|
D|-0000-7777-55555555-|
A|-0000-7777-55555555-|
D|-0000-7777-55555555-|

Guitar 2 has some white noise soloing nothing too stark but I can hear this at the end:

E|-----------------|
B|-17b-17b-17b-17b-|
G|-----------------|
D|-----------------|
A|-----------------|
D|-----------------|

Outro 

"Running from the rain..."

Guitar 1

E|--------------------|
B|--------------------|
G|--------------------|
D|-00000000-7777-2222-|
A|-00000000-7777-2222-|
D|-00000000-7777-2222-|

Guitar 2 does something along the lines of this but, again, it's hard to pick out.

E|-------------------------------------|
B|-----------7-------------4p2p0-------|
G|---7p6-7p6---6\4-4\2-2p0-------0h2\4-|
D|-0-----------------------------------|
A|-------------------------------------|
D|-------------------------------------|
Related for Running From The Rain tab