Guitaretab - guitar tabs
Song name
# A B C D E F G H I J K L M N O P Q R S T U V W X Y Z

Thurston Moore - Wonderful Witches tab

-------------------------------------------------------------------------------
			     WONDERFUL WITCHES  Thurston Moore
-------------------------------------------------------------------------------
Tabbed by: klyridol
Email: mustangkustom.over-blog.com/

Tuning: CGCGCD

INTRO

D|---------------------------------------------------------------------------|
C|---------------------------------------------------------------------------|
G|---------------------------------------------------------------------------|
C|---10----10--10--10-/13-\5----5--5--5--5--5--5--5--------------------------|
G|---10----10--10--10-/13-\5----5--5--5--5--5--5--5--------------------------|
C|---10----10--10--10-/13-\5----5--5--5--5--5--5--5--------------------------|


VERSUS

Not sure for this part, but it sounds ok. (bend the first time, then stay)
[ Tab from: http://www.guitaretab.com/t/thurston-moore/97702.html ]
D|---------------------------------------------------------------------------|
C|---------------------------------------------------------------------------|
G|---------------------------------------------------------------------------|
C|--2---2---2---2---2---2---2------------------------------------------------|
G|--0---0---0---0---0---0---0------------------------------------------------|
C|--2b-2b--2b--2b--2b--2b--2b-----------------------------------------------|


CHORUS

D|---------------------------------------------------------------------------|
C|--7---7--7--7--7--7---------------------10--10-10-10-10--------------------|
G|--7---7--7--7--7--7--8---8--8--8--8--8--10--10-10-10-10--7--7--7--7--7-----|
C|--7---7--7--7--7--7--8---8--8--8--8--8--10--10-10-10-10--7--7--7--7--7-----|
G|--5---5--5--5--5--5--8---8--8--8--8--8--8---8--8--8--8---7--7-7-7--7-----|
C|---------------------8---8--8--8--8--8-------------------7-7-7-7-7-----|

END

D|---------------------------------------------------------------------------|
C|---------------------------------------------------------------------------|
G|--10---10--10---10---10--10------------------------------------------------|
C|--10---10--10---10---10--10------------------------------------------------|
G|--10---10--10---10---10--10------------------------------------------------|
C|--10---10--10---10---10--10---/14b-----------------------------------------|


| /  slide up
| \  slide down
| h  hammer-on
| p  pull-off
| ~  vibrato
| +  harmonic
| x  Mute note
| b  bend
===============================================================================
Related for Wonderful Witches tab