Guitaretab - guitar tabs
Song name
# A B C D E F G H I J K L M N O P Q R S T U V W X Y Z

Thus Defiled - Of Shadow And Storm tab

Thus Defiled Web site - www.thusdefiled.co.uk


Start is double picked

e|------------------------------------|
B|------------------------------------|
G|---------7---9------------7---9-----| 4x
D|-4---4---7---9----4---4---7---9-----|
A|-4---4---5---7----4---4---5---7-----|
E|-2---2---5---7----2---2---5---7-----|
[ Tab from: http://www.guitaretab.com/t/thus-defiled/32780.html ]
  Norm picking here
e|-------------------------------------|
B|-------------------------------------|
G|---------7---9------------7---9------| 4x
D|-4---4---7---9----4---4---7---9------|
A|-4---4---5---7----4---4---5---7------|
E|-2---2---5---7----2---2---5---7------|

Double picking

e|---------------------------------------------------------------------------|
B|---------------------------------------------------------------------------|
G|---------------------------------------------------------------------------|
D|---------------------------------------------------5-4-5-7-5---------------|
A|--99999---12-11-----------12-11----------12-11---------------7-------------|
E|-------------------99999---------77777----------5--------------------------|
Advertisement will be closed in 10 seconds