Song name
# A B C D E F G H I J K L M N O P Q R S T U V W X Y Z

Thy Art Is Murder - The False Prophet tab

Thy Art is Murder - The False Prophet
2010
My First Tab DNT HATE -.-
Tunning - Drop A (AEADF#BE)
Intro - Riff 1
|----------------|
|----------------|
|----------------|
|----------------|
|----------------|
|3-2-1-3-3-3-2-1-|
|3-2-1-3-3-3-2-1-|

Riff 1 cont.
|------------------------------------|
|------------------------------------|
|------------------------------------|
|------------------------------------|   (x6)
|------------------------------------|
|3-2-1-3-3-3-2-3-2-1-3-3-3-2-3-2-1-0-|
|3-2-1-3-3-3-2-3-2-1-3-3-3-2-3-2-1-0-|

Riff 2
|-----------|
|-----------|
|-----------|
|-----------|
|-----------|
|0--0-0-0-0-|
|1--1-1-1-1-|
Tap to rate this tab
 
# A B C D E F G H I J K L M N O P Q R S T U V W X Y Z