Song name
# A B C D E F G H I J K L M N O P Q R S T U V W X Y Z

Thy Art Is Murder - Like A Face To A Blender tab

Did this by ear I couldn't do the sweep at the end

|----------------------------------------------------------------------------------------|
|----------------------------------------------------------------------------------------|
|----------------------------------------------------------------------------------------|
|----------------------------------------------------------------------------------------|
|-0----0-0--8-5-7-4--0-0--0-0--0-0----0-0--8-5-7-5---10-7---8-5---7-4--------------------|
|-0----0-0--------------0-0--0-0--0-0----0-0-------------0-------0------0----------------|

|--------------------------------------------------------------------------|
|--------------------------------------------------------------------------|
|--------------------------------------------------------------------------|
|--------------------------------------------------------------------------|
|--0-0--8-5-7-4--0000000000--8-5-7-5---10-7---8-5---7-4--------------------|
|--0-0--------------0000000000-------------0-------0------0----------------|

/----------------------------------------------------------------------------|
/----------------------------------------------------------------------------|
/----------------------------------------------------------------------------|
/-------------------------------------------------------8-5-8-5--------------|
/-------5h8\4--------4-5--4-5------5h8\4------------------7-4-7-4------------|
/--0-0---------0-0-8-----8------0-0---------0-0------------------------------|

/------------------------------------------------------------------------------|
/------------------------------------------------------------------------------|
/-------------------------------------------------------------------9-6-9-6----|
/--------------------------------------------------------8-5-8-5---------------|
/-------5h8\4----------4-5---4-5------5h\8-------------------------------------|
/--0-0----------0-0--8-----8------0-0--------0-0-------------------------------|

/--------------------------------------------------------------------------------------------|
/--------------------------------------------------------------------------------------------|
/--------------------------------------------------------------------------------------------|
/--------------------------------------------------------------------------------------------|
/---5555557777788888--555557777788888---444445555577777----------4444455555------------------|
/-------------------------------------------------------------------------------------88888--|

/------------------------------------------------------------------------------|
/------------------------------------------------------------------------------|
/------------------------------------------------------------------------------|
/------------------------------------------------------------------------------|
/---------------5h7h8---------8h7h5--------------5h7h8-----8--7--8-------------|
/--0--0-0--0----------0--0-0----------7--7-7--7----------8-8--8--8-------------|

/-------------------------------------------------------------------------------|
/-------------------------------------------------------------------------------|
/-------------------------------------------------------------------------------|
/------------------8-5--7-4---------------------------8-5--7-4------------------|
/---------------------------------8-5---------------------------------4-7--0----|
/--000000000-----0-------0--------000000000------0-----0-------0----------------|

/-----------------------------------------------------------------------/--------|
/-----------------------------------------------------------------------/--------|
/-----------------------------------------------------------------------/--------|
/-----------------------------------------------------------------------/--------|
/--0--000--0-0-0-8-4-0--000--0-0-0--------5--5---------4-4/-------4-4------5--5--|
/--0--000--0-0-0-------0--000--0-0-0---8-8--8---7-7--7----/--7-7--7---8-8--8-----|

/----------------------------------------------------------------------------------------|
/----------------------------------------------------------------------------------------|
/----------------------------------------------------------------------------------------|
/----------------------------------------------------------------------------------------|
/--0--000--0-0-0-------3-3-------2--2---0--000--0-0-0------4--4------5--5----------------|
/--0--000--0-0-0---6-6-6---5-5--5-----0--000--0-0-0--7-7--7---8-8--8---------------------|

/-------------------------------------------------------------------------------------|
/-------------------------------------------------------------------------------------|
/-------------------------------------------------------------------------------------|
/-------------------------------------------------------------------------------------|
/--0---0----0--000--1-0-1--0--000--1-0-1-4-1----0--0--000-000-000---------------------|
/--0---0----0--000--1-0-1--0--000--1-0-1-4-1----0--0--000-000-000---------------------|
Tap to rate this tab
# A B C D E F G H I J K L M N O P Q R S T U V W X Y Z