Song name
# A B C D E F G H I J K L M N O P Q R S T U V W X Y Z

Thy Majestie - The King And The Warrior tab

#----------------------------------PLEASE NOTE---------------------------------#
#This file is the author's own work and represents their interpretation of the #
#song. You may only use this file for private study, scholarship, or research. #
#------------------------------------------------------------------------------#

THE KING AND THE WARRIOR
As recorded by Thy Majestie
(From the 2002 Album HASTINGS 1066)

Transcribed by Sigbjorn01@gmx.net
	



Gtr I (Eb Ab Db Gb Bb Eb) - 'Untitled'
Gtr II (Eb Ab Db Gb Bb Eb) - 'Untitled'
Gtr III (Eb Ab Db Gb Bb Eb) - 'Untitled'
Gtr IV (Eb Ab Db Gb Bb Eb) - 'Untitled'

 Intro
  Q=160
  A5                           E5   F5          C5       G5
 4/4
  Gtr I
                                                          ~~
   E    E  E  S  S  e  S  S  E  E    E  E  E  E  E  S  S  Q
|---------------------------------|--------------------------|
|---------------------------------|--------------8-----------|
|-------9--7----------------------|-----9--7--------9--7--9--|
|--7---------10--9-10--9--7--9----|----------10--------------|
|-------------------------------7-|--8-----------------------|
|---------------------------------|--------------------------|
|
| Gtr II
|  H..                          E    H           Q        Q
|---------------------------------|--------------------------|
|---------------------------------|--------------------------|
|--2------------------------------|--------------5-----------|
|--2------------------------------|--3-----------5--------5--|
|--0----------------------------2-|--3-----------3--------5--|
|-------------------------------0-|--1--------------------3--|
|
| Gtr III
|                                                         ~~
|  E    E  E  S  S  e  S  S  E  E    E  E  E  E  E  S  S  Q
|---------------------------------|-------------15-----------|
|------17-15----------------------|----17-15-------17-15-17--|
|-14---------17-16-17-16-14-16----|----------17--------------|
|------------------------------14-|-15-----------------------|
|---------------------------------|--------------------------|
|---------------------------------|--------------------------|


  A5                           E5   F5          D5       E5
                                                          ~~
   E    E  E  S  S  e  S  S  E  E    E  E  E  E  E  S  S  Q
|---------------------------------|----------------------------|
|---------------------------------|----------------------------|
|-------9--7----------------------|-----9--7----10--7-----7----|
|--7---------10--9-10--9--7--9----|----------10-------10-------|
|-------------------------------7-|--8-------------------------|
|---------------------------------|----------------------------|
|
|  H..                          E    H           Q        Q
|---------------------------------|----------------------------|
|---------------------------------|----------------------------|
|--2------------------------------|--------------7-------------|
|--2------------------------------|--3-----------7-------12----|
|--0----------------------------2-|--3-----------5-------10----|
|-------------------------------0-|--1-------------------------|
|
|                                                         ~~
|  E    E  E  S  S  e  S  S  E  E    E  E  E  E  E  S  S  Q
|---------------------------------|----------------------------|
|------17-15----------------------|----17-15----18-15----15----|
|-14---------17-16-17-16-14-16----|----------17-------17-------|
|------------------------------14-|-15-------------------------|
|---------------------------------|----------------------------|
|---------------------------------|----------------------------|


    A5                                   E5
     E    E    E    S  S  e    S  S  E    E
||--------------------------------------------|
||o-------------------------------------------|
||--------9----7------------------------------|
||---7-------------10--9-10----9--7--9--------|
||o---------------------------------------7---|
||--------------------------------------------|
|
|   Gtrs II, IV
|    PM----------------------------------------
|    S S  S S  S S  S  S  S S  S  S  S S  S S
||--------------------------------------------|
||o-------------------------------------------|
||--------------------------------------------|
||---2----------------------------------------|
||o--0-0--0-0--0-0--0--0--0-0--0--0--0-0--2---|
||----------------------------------------0-0-|
|
|    E    E    E    S  S  e    S  S  E    E
||--------------------------------------------|
||o------17---15------------------------------|
||--14-------------17-16-17---16-14-16--------|
||---------------------------------------14---|
||o-------------------------------------------|
||--------------------------------------------|


  F5                  C5       G5
                                ~~
   E    E    E    E    E  S  S  Q
|-----------------------------------|
|----------------------8------------|
|-------9----7------------9--7--9---|
|----------------10-----------------|
|--8--------------------------------|
|-----------------------------------|
|
|-------------------|
|  S S  S S  S S  S S  Q        Q
|-----------------------------------|
|-----------------------------------|
|----------------------5------------|
|----------------------5--------5---|
|--3-------------------3--------5---|
|--1-1--1-1--1-1--1-1-----------3---|
|
|                               ~~
|  E    E    E    E    E  S  S  Q
|---------------------15------------|
|------17---15-----------17-15-17---|
|----------------17-----------------|
|-15--------------------------------|
|-----------------------------------|
|-----------------------------------|


  A5                                   E5
   E    E    E    S  S  e    S  S  E    E
|-------------------------------------------|
|-------------------------------------------|
|-------9----7------------------------------|
|--7-------------10--9-10----9--7--9--------|
|---------------------------------------7---|
|-------------------------------------------|
|
|  PM----------------------------------------
|  S S  S S  S S  S  S  S S  S  S  S S  S S
|-------------------------------------------|
|-------------------------------------------|
|-------------------------------------------|
|--2----------------------------------------|
|--0-0--0-0--0-0--0--0--0-0--0--0--0-0--2---|
|---------------------------------------0-0-|
|
|  E    E    E    S  S  e    S  S  E    E
|-------------------------------------------|
|------17---15------------------------------|
|-14-------------17-16-17---16-14-16--------|
|--------------------------------------14---|
|-------------------------------------------|
|-------------------------------------------|


  F5                  D5       G5
                                ~~
   E    E    E    E    E  S  S  Q
|-----------------------------------||
|----------------------------------o||
|-------9----7--------10--7-----7---||
|----------------10---------10------||
|--8-------------------------------o||
|-----------------------------------||
|
|-------------------|
|  S S  S S  S S  S S  Q        Q
|-----------------------------------||
|----------------------------------o||
|----------------------7--------7---||
|----------------------7--------5---||
|--3-------------------5-----------o||
|--1-1--1-1--1-1--1-1---------------||
|
|                               ~~
|  E    E    E    E    E  S  S  Q
|-----------------------------------||
|------17---15--------18-15----15--o||
|----------------17---------17------||
|-15--------------------------------||
|----------------------------------o||
|-----------------------------------||


                          $
  E5
   E  E  E  E  E  E  E  E
|-------------------------||
|-------------------------||
|-----------------9-------||
|--------9-----9-----9----||
|--7-11----11----------11-||
|-------------------------||
|
|  W
|-------------------------||
|-------------------------||
|-------------------------||
|--2----------------------||
|--2----------------------||
|--0----------------------||
|
|  E  E  E  E  E  E  E  E
|-------------------------||
|----------------17-------||
|-------16----16----16----||
|-14-18----18----------18-||
|-------------------------||
|-------------------------||


 Verse
  A5                           C5
   Q      H.                   W
|----------------------------|--------------------------|
|----------------------------|--------------------------|
|----------------------------|--------------------------|
|--7\------------------------|--------------------------|
|----------------------------|--------------------------|
|----------------------------|--------------------------|
|
|     PM-------------------|     PM------------------|
|  E  S S E  S S E S S E S S   E S S E S S E S S E S S
|----------------------------|--------------------------|
|----------------------------|--------------------------|
|--2-------------------------|-5------------------------|
|--2--2-2-2--2-2-2-2-2-2-2-2-|-5-5-5-5-5-5-5-5-5-5-5-5--|
|--0--0-0-0--0-0-0-0-0-0-0-0-|-3-3-3-3-3-3-3-3-3-3-3-3--|
|----------------------------|--------------------------|
|
|  Q      H.                   W
|----------------------------|--------------------------|
|----------------------------|--------------------------|
|-14\------------------------|--------------------------|
|----------------------------|--------------------------|
|----------------------------|--------------------------|
|----------------------------|--------------------------|


  D5                        E5
  Gtr III
  W                         W
|-------------------------|-----------------------------|
|-------------------------|-----------------------------|
|-------------------------|-----------------------------|
|-------------------------|-----------------------------|
|-------------------------|-----------------------------|
|-------------------------|-----------------------------|
|
|   PM--------------------------------------------|
| E S S E S S E S S E S S   S S S S S S S S S S S S Q
|-------------------------|-----------------------------|
|-------------------------|-----------------------------|
|-7-----------------------|-----------------------------|
|-7-7-7-7-7-7-7-7-7-7-7-7-|-9-----------------------9\--|
|-5-5-5-5-5-5-5-5-5-5-5-5-|-7-7-7-7-7-7-7-7-7-7-7-7-7\--|
|-------------------------|-----------------------------|


  A5
   S S  S S  S S  S S  S S  S S  S S  S S
|-12p8----8-12p8----8-12p8----8-12p8----8-|
|------10--------10--------10--------10---|
|-----------------------------------------|
|-----------------------------------------|
|-----------------------------------------|
|-----------------------------------------|
|
|       PM------------------------------|
|  E    S S  E    S S  E    S S  E    S S
|-----------------------------------------|
|-----------------------------------------|
|--2--------------------------------------|
|--2----2-2--2----2-2--2----2-2--2----2-2-|
|--0----0-0--0----0-0--0----0-0--0----0-0-|
|-----------------------------------------|


  C5                                                D5
   S  S  S  S  S  S  S  S  S  S  S  S  S  S  S  S    S  S  S  S  S  S  S  S  S  S  S  S  S  S  S  S
|-15p12----12-15p12----12-15p12----12-15p12----12-|-17p13----13-17p13----13-17p13----13-17p13----13-|
|-------13----------13----------13----------13----|-------15----------15----------15----------15----|
|-------------------------------------------------|-------------------------------------------------|
|-------------------------------------------------|-------------------------------------------------|
|-------------------------------------------------|-------------------------------------------------|
|-------------------------------------------------|-------------------------------------------------|
|
|        PM------------------------------------|           PM----------------------------------------
|  E     S  S  E     S  S  E     S  S  E     S  S    E     S  S  E     S  S  E     S  S  E     S  S
|-------------------------------------------------|-------------------------------------------------|
|-------------------------------------------------|-------------------------------------------------|
|--5----------------------------------------------|--7----------------------------------------------|
|--5-----5--5--5-----5--5--5-----5--5--5-----5--5-|--7-----7--7--7-----7--7--7-----7--7--7-----7--7-|
|--3-----3--3--3-----3--3--3-----3--3--3-----3--3-|--5-----5--5--5-----5--5--5-----5--5--5-----5--5-|
|-------------------------------------------------|-------------------------------------------------|


  E5
   S  S  S  S  S  S  S  S  S  S  S  S  S   S  S S
|-19p16----16-19p16----16-19p16----16-19p=16------||
|-------17----------17----------17-----------17---||
|-------------------------------------------------||
|-------------------------------------------------||
|-------------------------------------------------||
|-------------------------------------------------||
|
|----------------------------------|
|  S  S  S  S  S  S  S  S  S  S  S  S  Q
|-------------------------------------------------||
|-------------------------------------------------||
|-------------------------------------------------||
|--9-----------------------------------9\---------||
|--7--7--7--7--7--7--7--7--7--7--7--7--7\---------||
|-------------------------------------------------||


 Pre-Chorus
  $$
  F5                       A5                       D5
  Gtrs II, IV
    PM----|   PM----|        PM----|   PM----|        PM----|   PM----|
  E S S S S E S S S S Q    E S S S S E S S S S Q    E S S S S E S S S S Q
|------------------------|------------------------|-------------------------|
|------------------------|------------------------|-------------------------|
|------------------------|------------------------|-7---------7---------7---|
|-3---------3---------3--|-7---------7---------7--|-7-7-7-7-7-7-7-7-7-7-7---|
|-3-3-3-3-3-3-3-3-3-3-3--|-7-7-7-7-7-7-7-7-7-7-7--|-5-5-5-5-5-5-5-5-5-5-5---|
|-1-1-1-1-1-1-1-1-1-1-1--|-5-5-5-5-5-5-5-5-5-5-5--|-------------------------|


  C5              G/B
  PM----------------------------|
  S S S S S S S S S S S S S S S S
|---------------------------------|
|---------------------------------|
|---------------------------------|
|-5---------------5---------------|
|-3-3-3-3-3-3-3-3-2-2-2-2-2-2-2-2-|
|---------------------------------|


  D5                       A5
    PM----|   PM----|        PM----|   PM----|
  E S S S S E S S S S Q    E S S S S E S S S S Q
|------------------------|--------------------------|
|------------------------|--------------------------|
|-7---------7---------7--|--------------------------|
|-7-7-7-7-7-7-7-7-7-7-7--|-7---------7---------7----|
|-5-5-5-5-5-5-5-5-5-5-5--|-7-7-7-7-7-7-7-7-7-7-7----|
|------------------------|-5-5-5-5-5-5-5-5-5-5-5----|


                                                     Chorus
                                              D.S.
  E5                                                  A5
  PM----------------------------|    ~~~~~~~~~~~~~
  S S S S S S S S S S S S S S S S    H.      +Q       W
|---------------------------------|----------------||------||
|---------------------------------|----------------||------||
|---------------------------------|-/9-------(9)\--||------||
|-9-------------------------------|----------------||-7----||
|-7-7-7-7-7-7-7-7-7-7-7-7-7-7-7-7-|----------------||-7----||
|---------------------------------|----------------||-5----||


  G5         C5            G5         D5                      E5
  Gtr II
                                      PM------------------------------|
  W          H.      E E   W          S S S S S S S S S S S S  S  S S S
|----------|-------------|----------|------------------------------------|
|----------|-------------|----------|------------------------------------|
|----------|-5-----------|----------|------------------------------------|
|-5--------|-5-----------|-5--------|-7----------------------------------|
|-5--------|-3-------5p3-|-5--------|-5-5-5-5-5-5-5-5-5-5-5-5--7--7-7-7--|
|-3--------|-------------|-3--------|------------------------------------|
|
| Gtr IV
|                                     PM------------------------------|
| W          W             W          S S S S S S S S S S S S  S  S S S
|----------|-------------|----------|------------------------------------|
|----------|-------------|----------|------------------------------------|
|----------|-5-----------|----------|------------------------------------|
|-5--------|-5-----------|-5--------|-7-----------------------(9)--------|
|-5--------|-3-----------|-5--------|-5-5-5-5-5-5-5-5-5-5-5-5--7--7-7-7--|
|-3--------|-------------|-3--------|------------------------------------|


  F5                                   G5
  Gtrs II, IV
    PM------------------------------------------------------------------------------------
    S  S S S S S S S S S S S S S S S     S   S  S  S  S  S  S  S  S  S  S  S  S  S  S  S
|------------------------------------|---------------------------------------------------|
|------------------------------------|---------------------------------------------------|
|------------------------------------|---------------------------------------------------|
|-(10)-------------------------------|-(12)----------------------------------------------|
|---8--8-8-8-8-8-8-8-8-8-8-8-8-8-8-8-|--10--10-10-10-10-10-10-10-10-10-10-10-10-10-10-10-|
|------------------------------------|---------------------------------------------------|


 ----------------------------------------------|
   S  S  S  S  S  S  S  S  S  S  S  S  S  S  S  S
|-------------------------------------------------|
|-------------------------------------------------|
|-------------------------------------------------|
|-------------------------------------------------|
|-10-10-10-10-10-10-10-10-10-10-10-10-10-10-10-10-|
|-------------------------------------------------|


  A5         G5         C5         G5
  W          W          W          W
|----------|----------|----------|----------|
|----------|----------|----------|----------|
|----------|----------|-5--------|----------|
|-7--------|-5--------|-5--------|-5--------|
|-7--------|-5--------|-3--------|-5--------|
|-5--------|-3--------|----------|-3--------|


  D5                      E5
  PM------------------------------|
  S S S S S S S S S S S S  S  S S S
|-------------------------------------|
|-------------------------------------|
|-------------------------------------|
|-7-----------------------(9)---------|
|-5-5-5-5-5-5-5-5-5-5-5-5--7--7-7-7---|
|-------------------------------------|


  F5                                   G5
    PM------------------------------------------------------------------------------------
    S  S S S S S S S S S S S S S S S     S   S  S  S  S  S  S  S  S  S  S  S  S  S  S  S
|------------------------------------|---------------------------------------------------|
|------------------------------------|---------------------------------------------------|
|------------------------------------|---------------------------------------------------|
|-(10)-------------------------------|-(12)----------------------------------------------|
|---8--8-8-8-8-8-8-8-8-8-8-8-8-8-8-8-|--10--10-10-10-10-10-10-10-10-10-10-10-10-10-10-10-|
|------------------------------------|---------------------------------------------------|


 ----------------------------------------------|
   S  S  S  S  S  S  S  S  S  S  S  S  S  S  S  S
|-------------------------------------------------||
|-------------------------------------------------||
|-------------------------------------------------||
|-------------------------------------------------||
|-10-10-10-10-10-10-10-10-10-10-10-10-10-10-10-10-||
|-------------------------------------------------||


   Interlude
    A5                                   E5
    Gtr I
     E    E    E    S  S  e    S  S  E    E
||--------------------------------------------|
||o-------------------------------------------|
||--------9----7------------------------------|
||---7-------------10--9-10----9--7--9--------|
||o---------------------------------------7---|
||--------------------------------------------|
|
|   Gtrs II, III
|    PM----------------------------------------
|    S S  S S  S S  S  S  S S  S  S  S S  S S
||--------------------------------------------|
||o-------------------------------------------|
||--------------------------------------------|
||---2----------------------------------------|
||o--0-0--0-0--0-0--0--0--0-0--0--0--0-0--2---|
||----------------------------------------0-0-|
|
|   Gtr IV
|    E    E    E    S  S  e    S  S  E    E
||--------------------------------------------|
||o------17---15------------------------------|
||--14-------------17-16-17---16-14-16--------|
||---------------------------------------14---|
||o-------------------------------------------|
||--------------------------------------------|


  F5                  C5       G5
                                ~~
   E    E    E    E    E  S  S  Q
|-----------------------------------|
|----------------------8------------|
|-------9----7------------9--7--9---|
|----------------10-----------------|
|--8--------------------------------|
|-----------------------------------|
|
|-------------------|
|  S S  S S  S S  S S  Q        Q
|-----------------------------------|
|-----------------------------------|
|----------------------5------------|
|----------------------5--------5---|
|--3-------------------3--------5---|
|--1-1--1-1--1-1--1-1-----------3---|
|
|                               ~~
|  E    E    E    E    E  S  S  Q
|---------------------15------------|
|------17---15-----------17-15-17---|
|----------------17-----------------|
|-15--------------------------------|
|-----------------------------------|
|-----------------------------------|


  A5                                   E5
   E    E    E    S  S  e    S  S  E    E
|-------------------------------------------|
|-------------------------------------------|
|-------9----7------------------------------|
|--7-------------10--9-10----9--7--9--------|
|---------------------------------------7---|
|-------------------------------------------|
|
|  PM----------------------------------------
|  S S  S S  S S  S  S  S S  S  S  S S  S S
|-------------------------------------------|
|-------------------------------------------|
|-------------------------------------------|
|--2----------------------------------------|
|--0-0--0-0--0-0--0--0--0-0--0--0--0-0--2---|
|---------------------------------------0-0-|
|
|  E    E    E    S  S  e    S  S  E    E
|-------------------------------------------|
|------17---15------------------------------|
|-14-------------17-16-17---16-14-16--------|
|--------------------------------------14---|
|-------------------------------------------|
|-------------------------------------------|


  F5                  D5       G5
                                ~~
   E    E    E    E    E  S  S  Q
|-----------------------------------||
|----------------------------------o||
|-------9----7--------10--7-----7---||
|----------------10---------10------||
|--8-------------------------------o||
|-----------------------------------||
|
|-------------------|
|  S S  S S  S S  S S  Q        Q
|-----------------------------------||
|----------------------------------o||
|----------------------7--------7---||
|----------------------7--------5---||
|--3-------------------5-----------o||
|--1-1--1-1--1-1--1-1---------------||
|
|                               ~~
|  E    E    E    E    E  S  S  Q
|-----------------------------------||
|------17---15--------18-15----15--o||
|----------------17---------17------||
|-15--------------------------------||
|----------------------------------o||
|-----------------------------------||


                             Guitar Solo 1
                   To Coda
  E5                          F#5
   E  E  E  E  E  E  E  E      E   E    +E        +E   E    E    +E      +E
|--------------------------||--------------------------------------------------|
|--------------------------||------------------------------14---(14)b15r(14)---|
|-----------------9--------||-----13---(13)b14r==(13)--------------------------|
|--------9-----9-----9-----||-16----------------------16-----------------------|
|--7-11----11----------11--||--------------------------------------------------|
|--------------------------||--------------------------------------------------|
|
|                                  PM----------|       PM-----|           PM-|
|  W                           E   S S   S     S   E   S S  S S   E       S  S
|--------------------------||--------------------------------------------------|
|--------------------------||--------------------------------------------------|
|--------------------------||--------------------------------------------------|
|--2-----------------------||-11------------------11-------------11------------|
|--2-----------------------||--9---9-9---9-----9---9---9-9--9-9---9-------9--9-|
|--0-----------------------||--------------------------------------------------|
|
|  E  E  E  E  E  E  E  E      Q         H.
|--------------------------||--------------------------------------------------|
|----------------17--------||--------------------------------------------------|
|-------16----16----16-----||--------------------------------------------------|
|-14-18----18----------18--||-14\----------------------------------------------|
|--------------------------||--------------------------------------------------|
|--------------------------||--------------------------------------------------|


   E  E    E       +E   Q        Q
|----------------------17-------14-------|
|----14---17b19r==(17)-------------------|
|----------------------------------------|
|-16-------------------------------------|
|----------------------------------------|
|----------------------------------------|
|
|     PM--------|       PM-------------|
|  E  S S  S    S   E   S S S S  S S S S
|----------------------------------------|
|----------------------------------------|
|----------------------------------------|
|-11---------------11--------------------|
|--9--9-9--9----9---9---9-9-9-9--9-9-9-9-|
|----------------------------------------|
|
|  W
|----------------------------------------|
|----------------------------------------|
|----------------------------------------|
|----------------------------------------|
|----------------------------------------|
|----------------------------------------|


                                                   D5    E5
   S  S  S  S  S  S  S  S  S  S  S  S  S  S  E      Q.    E     +H
|-17-16-14---------------------------------------|-17----19b21r(19)----|
|----------17-------14-15-14-15-17-15-14---------|-19----21b22r(21)----|
|-------------14-16----------------------14------|---------------------|
|-------------------------------------------16---|---------------------|
|------------------------------------------------|---------------------|
|------------------------------------------------|---------------------|
|
|        PM------|         PM------|         PM|
|  E     S  S  S  S  E     S  S  S  S  E     S S    H            H
|------------------------------------------------|---------------------|
|------------------------------------------------|---------------------|
|------------------------------------------------|--7------------9-----|
|-11----------------11----------------11---------|--7------------9-----|
|--9-----9--9--9--9--9-----9--9--9--9--9-----9-9-|--5------------7-----|
|------------------------------------------------|---------------------|


  F#5
   S  S  S  S  S  S  S  S  S  S  S  S  S  S  E
|----------------------14-17-14-17-14-17-14-------|
|-------------14-15-17----------------------14----|
|----13-14-16-------------------------------------|
|-16----------------------------------------------|
|-------------------------------------------------|
|-------------------------------------------------|
|
|        PM------|         PM------|         PM|
|  E     S  S  S  S  E     S  S  S  S  E     S S
|-------------------------------------------------|
|-------------------------------------------------|
|-------------------------------------------------|
|-11----------------11----------------11----------|
|--9-----9--9--9--9--9-----9--9--9--9--9-----9-9--|
|-------------------------------------------------|


   S  S  S  S  S  S  S  S  H                  S  S  S  S  S  S  S  S  S  S  S  S  S  S  S  S
|------------------------------------------|----------------------------------14----14-16-17-|
|-17p15p14h15h17p15p14h15------------------|-------------------14-15-14-15-17----17----------|
|-------------------------13---------------|----13-14-16-14-16-------------------------------|
|------------------------------------------|-16----------------------------------------------|
|------------------------------------------|-------------------------------------------------|
|------------------------------------------|-------------------------------------------------|
|
|        PM------|         PM------------|          PM------|         PM------|
|  E     S  S  S  S  E     S S S S S S S S    E     S  S  S  S  E     S  S  S  S  E     E
|------------------------------------------|-------------------------------------------------|
|------------------------------------------|-------------------------------------------------|
|------------------------------------------|-------------------------------------------------|
|-11----------------11---------------------|-11----------------11----------------11----------|
|--9-----9--9--9--9--9-----9-9-9-9-9-9-9-9-|--9-----9--9--9--9--9-----9--9--9--9--9-----0----|
|------------------------------------------|-------------------------------------------------|


  D5                      E5
   S  S  S  S  S  S  S  S  S  S  S  S  S  S  S  S
|-17-16-14----------------------------------14-16----||
|----------17-15-14----------------14-15-17----------||
|-------------------16-14-13-14-16-------------------||
|----------------------------------------------------||
|----------------------------------------------------||
|----------------------------------------------------||
|
|  H                       H
|----------------------------------------------------||
|----------------------------------------------------||
|--7-----------------------9-------------------------||
|--7-----------------------9-------------------------||
|--5-----------------------7-------------------------||
|----------------------------------------------------||


 Guitar Solo 2
  A5
  Gtrs I, III
--|PM-----|    PM-----|    PM-----|     PM---------|
   W
|-17-----------------------------------------------------|
|--------------------------------------------------------|
|--------------------------------------------------------|
|--2----2-2----2----2-2----2----2-2-----2------2----2----|
|--0----0-0----0----0-0----0----0-0-----0------0----0----|
|--------------------------------------------------------|
|  S    S S  S S    S S  S S    S S  S  S      S    S  S
|
| Gtr II
|  E      E    E      E    E      E     S     +S    E
|--------------------------------------------------------|
|--------------------------------------------------------|
|--7b9====7r---7b9====7r---7b9====7r---[7]b9r([7])p[5]---|
|--------------------------------------------------------|
|--------------------------------------------------------|
|--------------------------------------------------------|


   PM-----|   PM--|       PM--|   PM--------|   PM--|   PM--|   PM--|   PM--|
   W                                            W
|---------------------------------------------|------------------------------------|
|---------------------------------------------|------------------------------------|
|---------------------------------------------|------------------------------------|
|--2----2-2---2-2---2-----2-2-2---2----2--2-2-|-2-2-2---2-2-2---2-2-2---2-2-2------|
|--0----0-0---0-0---0-----0-0-0---0----0--0-0-|-0-0-0---0-0-0---0-0-0---0-0-0------|
|---------------------------------------------|------------------------------------|
|  S    S S S S S   S   S S S S S S    S  S S   S S S S S S S S S S S S S S S S
|
|  Q.              +Q.            S   +S  E     W
|---------------------------------------------|------------------------------------|
|---------------------------------------------|------------------------------------|
|-[7]b9-----------([7])-----------7b9r(7)p5---|------------------------------------|
|---------------------------------------------|-7----------------------------------|
|---------------------------------------------|------------------------------------|
|---------------------------------------------|------------------------------------|


  F5          G5     A5
                     PM--|   PM--|   PM--|   PM--|
   H        E Q.     S S S S S S S S S S S S S S S S
|------------------|---------------------------------|
|------------------|---------------------------------|
|------------------|---------------------------------|
|--3----------5----|-2-2-2---2-2-2---2-2-2---2-2-2---|
|--3----------5----|-0-0-0---0-0-0---0-0-0---0-0-0---|
|--1----------3----|---------------------------------|
|
|  E  E E E H        S S S S S S S S S S S S S S S S
|------------------|---------------------------------|
|------------------|---------------------------------|
|-[5]p4------------|-5h7p5p0-5h7p5p0-5h7p5p0-5h7p5p0-|
|---------7-5------|---------------------------------|
|------------------|---------------------------------|
|------------------|---------------------------------|


  PM--|   PM--|   PM--|   PM----|
  S S S S S S S S S S S S S S S S
|-----------------------------------|
|-----------------------------------|
|-----------------------------------|
|-2-2-2---2-2-2---2-2-2---2-2-2-2---|
|-0-0-0---0-0-0---0-0-0---0-0-0-0---|
|-----------------------------------|
|
| S S S S S S S S S S S S S S S S
|-----------------------------------|
|-----------------------------------|
|-4h5p4p0-4h5p4p0-4h5p4p0-4h5p4p0---|
|-----------------------------------|
|-----------------------------------|
|-----------------------------------|


                                    C5                            G5
  PM--|   PM--|   PM--|   PM--|                              PM
  S S S S S S S S S S S S S S S S    H                       e     Q.
|---------------------------------|--------------------------------------------------||
|---------------------------------|--------------------------------------------------||
|---------------------------------|--5-----------------------------7-----------------||
|-2-2-2---2-2-2---2-2-2---2-2-2---|--5-----------------------0-----5-----------------||
|-0-0-0---0-0-0---0-0-0---0-0-0---|--3-----------------------------------------------||
|---------------------------------|--------------------------------------------------||
|
| S S S S S S S S S S S S Q          S  S  S  S  S  S  S  S  S  S  S   S  S  S  S  S
|---------------------------------|-------------12--------------------12-13-12-------||
|---------------------------------|----12-13-15----15-13-12-12-13-15-----------15-13-||
|-2h4p2p0-2h4p2p0-2h4p2p0-2-------|-14-----------------------------------------------||
|---------------------------------|--------------------------------------------------||
|---------------------------------|--------------------------------------------------||
|---------------------------------|--------------------------------------------------||


 Synth Solo
  C5
   PM----|   PM|        PM----------|
   S     S E S S   E    S   S S S S S E
|-----------------------------------------|
|-----------------------------------------|
|-----------------------------------------|
|----------5-------5------------------5---|
|--3-----3-3-3-3---3----3---3-3-3-3-3-3---|
|-----------------------------------------|
|
|  Q.             +E   +H
|-13b15==========(13)-(13)r---------------|
|-----------------------------------------|
|-----------------------------------------|
|-----------------------------------------|
|-----------------------------------------|
|-----------------------------------------|


                                                          Eb5  F5
  PM|   PM|   PM--------|     PM|   PM|   PM--------|
  S S E S S E S S S S S S E   S S E S S E S S S S S S E   H     H
|---------------------------|---------------------------|------------|
|---------------------------|---------------------------|------------|
|---------------------------|---------------------------|-8----10----|
|-----5-----5-------------5-|-----5-----5-------------5-|-8----10----|
|-3-3-3-3-3-3-3-3-3-3-3-3-3-|-3-3-3-3-3-3-3-3-3-3-3-3-3-|-6-----8----|
|---------------------------|---------------------------|------------|


  C5
  PM|   PM|   PM--------|     PM|   PM|   PM--------|
  S S E S S E S S S S S S E   S S E S S E S S S S S S E
|---------------------------|---------------------------|
|---------------------------|---------------------------|
|---------------------------|---------------------------|
|-----5-----5-------------5-|-----5-----5-------------5-|
|-3-3-3-3-3-3-3-3-3-3-3-3-3-|-3-3-3-3-3-3-3-3-3-3-3-3-3-|
|---------------------------|---------------------------|


  PM|   PM|   PM--------|
  S S E S S E S S S S S S E
|-----------------------------|
|-----------------------------|
|-----------------------------|
|-----5-----5-------------5---|
|-3-3-3-3-3-3-3-3-3-3-3-3-3---|
|-----------------------------|


                Interlude Again
  F5    G5       A5                           E5   F5          C5       G5
  Gtr I
                                                                         ~~
   W              E    E  E  S  S  e  S  S  E  E    E  E  E  E  E  S  S  Q
|-------------||---------------------------------|---------------------------|
|-------------||---------------------------------|--------------8------------|
|-------------||-------9--7----------------------|-----9--7--------9--7--9---|
|-------------||--7---------10--9-10--9--7--9----|----------10---------------|
|-------------||-------------------------------7-|--8------------------------|
|-------------||---------------------------------|---------------------------|
|
| Gtrs II, IV
|  H     H        H..                          E    H           Q        Q
|-------------||---------------------------------|---------------------------|
|-------------||---------------------------------|---------------------------|
|-10----12----||--2------------------------------|--------------5------------|
|-10----12----||--2------------------------------|--3-----------5--------5---|
|--8----10----||--0----------------------------2-|--3-----------3--------5---|
|-------------||-------------------------------0-|--1--------------------3---|
|
| Gtr III
|                                                                        ~~
|  W              E    E  E  S  S  e  S  S  E  E    E  E  E  E  E  S  S  Q
|-------------||---------------------------------|-------------15------------|
|-------------||------17-15----------------------|----17-15-------17-15-17---|
|-------------||-14---------17-16-17-16-14-16----|----------17---------------|
|-------------||------------------------------14-|-15------------------------|
|-------------||---------------------------------|---------------------------|
|-------------||---------------------------------|---------------------------|


  A5                           E5   F5          D5       G5
                                                          ~~
   E    E  E  S  S  e  S  S  E  E    E  E  E  E  E  S  S  Q
|---------------------------------|--------------------------|
|---------------------------------|--------------------------|
|-------9--7----------------------|-----9--7----10--7-----7--|
|--7---------10--9-10--9--7--9----|----------10-------10-----|
|-------------------------------7-|--8-----------------------|
|---------------------------------|--------------------------|
|
|  H..                          E    H           Q        Q
|---------------------------------|--------------------------|
|---------------------------------|--------------------------|
|--2------------------------------|--------------7-----------|
|--2------------------------------|--3-----------7-------12--|
|--0----------------------------2-|--3-----------5-------10--|
|-------------------------------0-|--1-----------------------|
|
|                                                         ~~
|  E    E  E  S  S  e  S  S  E  E    E  E  E  E  E  S  S  Q
|---------------------------------|--------------------------|
|------17-15----------------------|----17-15----18-15----15--|
|-14---------17-16-17-16-14-16----|----------17-------17-----|
|------------------------------14-|-15-----------------------|
|---------------------------------|--------------------------|
|---------------------------------|--------------------------|


  A5                                          F5                  C5       G5
                                                                            ~~
   E    E    E    S  S  e    S  S  E    E      E    E    E    E    E  S  S  Q
|-------------------------------------------|----------------------------------|
|-------------------------------------------|----------------------8-----------|
|-------9----7------------------------------|-------9----7------------9--7--9--|
|--7-------------10--9-10----9--7--9--------|----------------10----------------|
|---------------------------------------7---|--8-------------------------------|
|-------------------------------------------|----------------------------------|
|
|  PM-----------------------------------------------------------|
|  S S  S S  S S  S  S  S S  S  S  S S  S S    S S  S S  S S  S S  Q        Q
|-------------------------------------------|----------------------------------|
|-------------------------------------------|----------------------------------|
|-------------------------------------------|----------------------5-----------|
|--2----------------------------------------|----------------------5--------5--|
|--0-0--0-0--0-0--0--0--0-0--0--0--0-0--2---|--3-------------------3--------5--|
|---------------------------------------0-0-|--1-1--1-1--1-1--1-1-----------3--|
|
|                                                                           ~~
|  E    E    E    S  S  e    S  S  E    E      E    E    E    E    E  S  S  Q
|-------------------------------------------|---------------------15-----------|
|------17---15------------------------------|------17---15-----------17-15-17--|
|-14-------------17-16-17---16-14-16--------|----------------17----------------|
|--------------------------------------14---|-15-------------------------------|
|-------------------------------------------|----------------------------------|
|-------------------------------------------|----------------------------------|


  A5                                   E5
   E    E    E    S  S  e    S  S  E    E
|-------------------------------------------|
|-------------------------------------------|
|-------9----7------------------------------|
|--7-------------10--9-10----9--7--9--------|
|---------------------------------------7---|
|-------------------------------------------|
|
|  PM----------------------------------------
|  S S  S S  S S  S  S  S S  S  S  S S  S S
|-------------------------------------------|
|-------------------------------------------|
|-------------------------------------------|
|--2----------------------------------------|
|--0-0--0-0--0-0--0--0--0-0--0--0--0-0--2---|
|---------------------------------------0-0-|
|
|  E    E    E    S  S  e    S  S  E    E
|-------------------------------------------|
|------17---15------------------------------|
|-14-------------17-16-17---16-14-16--------|
|--------------------------------------14---|
|-------------------------------------------|
|-------------------------------------------|


                                     End
                    D.S.S. al Coda    &
  F5                  D5       G5
                                ~~
   E    E    E    E    E  S  S  Q      Q   H.
|----------------------------------||------------*|
|----------------------------------||------------*|
|-------9----7--------10--7-----7--||------------*|
|----------------10---------10-----||--7\--------*|
|--8-------------------------------||------------*|
|----------------------------------||------------*|
|
|-------------------|
|  S S  S S  S S  S S  Q        Q      Q   H.
|----------------------------------||------------*|
|----------------------------------||------------*|
|----------------------7--------7--||------------*|
|----------------------7--------5--||--7\--------*|
|--3-------------------5-----------||--7\--------*|
|--1-1--1-1--1-1--1-1--------------||--5\--------*|
|
|                               ~~
|  E    E    E    E    E  S  S  Q      Q   H.
|----------------------------------||------------*|
|------17---15--------18-15----15--||------------*|
|----------------17---------17-----||-14\--------*|
|-15-------------------------------||------------*|
|----------------------------------||------------*|
|----------------------------------||------------*|



Duration Legend
---------------
W - whole; H - half; Q - quarter; E - 8th; S - 16th; T - 32nd; X - 64th; a - acciaccatura
+ - note tied to previous; . - note dotted; .. - note double dotted
Uncapitalized letters represent notes that are staccato (1/2 duration)
Irregular groupings are notated above the duration line
Duration letters will always appear directly above the note/fret number it represents the
duration for.  Duration letters with no fret number below them represent rests.  Multi-
bar rests are notated in the form Wxn, where n is the number of bars to rest for.  Low
melody durations appear below the staff

Tablature Legend
----------------
 h   - hammer-on
 p   - pull-off
 b   - bend
 pb  - pre-bend
 r   - bend release (if no number after the r, then release immediately)
 /\  - slide into or out of (from/to "nowhere")
 s   - legato slide
 S   - shift slide
 - natural harmonic
[n]  - artificial harmonic
n(n) - tapped harmonic
 ~   - vibrato
 tr  - trill
 T   - tap
 TP  - trem. picking
 PM  - palm muting
\n/  - tremolo bar dip; n = amount to dip
 \n  - tremolo bar down
 n/  - tremolo bar up
/n\  - tremolo bar inverted dip
 =   - hold bend; also acts as connecting device for hammers/pulls
 <> - volume swell (louder/softer)
 x   - on rhythm slash represents muted slash
 o   - on rhythm slash represents single note slash

Misc Legend
-----------
 |  - bar
||  - double bar
||o - repeat start
o|| - repeat end
*|  - double bar (ending)
 :  - bar (freetime)
 $  - Segno
 &  - Coda
Tempo markers -  = BPM(8/16=s8/s16), where s8 = swing 8ths, s16 = swing 16ths

Tap to rate this tab
# A B C D E F G H I J K L M N O P Q R S T U V W X Y Z