Song name
# A B C D E F G H I J K L M N O P Q R S T U V W X Y Z

Thy Serpent - Unknown tab

Help us improve GuitareTab! Take a short survey!
UNKOWN by Thy Serpent
Tabulature By: Ebenoth Seriah.          

Intro
-----------------------------------|
-----------------------------------|
---9-9-9-9-9-9-10-10-10-12--10-----| x 4 with fast
---9-9-9-9-9-9-10-10-10-12--10-----|  tremolo pick
---7-7-7-7-7-7-8--8--8--10--8------|
-----------------------------------|

The main riff. This is repeated many times
during lyrics.
------------------------|
------------------------|
---------77777788775577-| x really much
--5555555---------------|
------------------------|
------------------------|

Riff B. 
----------------------------------------------------
----------------------------------------------------
--10-1010-10-1010-10/11-11\10-----------------------
--10-1010-10-1010-10/11-11\10-10/11-11\10-8-88-8-88-
--8--8-8--8--8-8--8-/9--9-\8--10/11-11\10-8-88-8-88-
------------------------------8-/9--9-\8--6-66-6-66-

-------------------|
-------------------|
-------------------|
-8\7-7/8-8\7-10/11-|
-8\7-7/8-8\7-10/11-|
-6\5-5/6-6\5-8-/9--|

Riff C. This is played after Riff B. Then back to Riff B
and once more this Riff C and then to the main Riff A.
----------------------------------------------------|
----------------------------------------------------|
----------------9/11-------------------------10/12--|
-9-99-9-99-9-99------10-1010-10-1010-10-1010--------|
-9-99-9-99-9-99------10-1010-10-1010-10-1010--------|
-7-77-7-77-7-77------8--8-8--8--8-8--8--8-8---------|

The outro. This will be continued till end with a little
fading effect.
-----17-12-13----------------17-12-13---------------|
--------------17~15~------------------17~15~-171815-|
-14~~----------------14~-14~~-----------------------| x many
----------------------------------------------------|
----------------------------------------------------|
----------------------------------------------------|

END
Related for Unknown tab