Song name
# A B C D E F G H I J K L M N O P Q R S T U V W X Y Z

Thy Serpent - Flowers Of Witchery A Bloom tab

join the death/black tab mailing list by emailing 
FLOWERS OF WITCHERY ABLOOM
By Thy Serpent.
Tabulature by: Ebenoth Seriah.


Intro
-5-5-5-6-6-6-5-3-3-3-3-3-3--------------------------|
-3-3-3-3-3-3-3-3-3-3-3-3-3-4-4-4-6-6-4-6-6-6-6-6-6--|
---------------------------3-3-3-3-3-3-5-5-5-5-5-5--|
----------------------------------------------------|
----------------------------------------------------|
----------------------------------------------------|

The main riff.
-------------------11-----------------------5-----------5----|
-------------11-------11------------------5---5-------5---5--|
-------11-------11-------11----11-------6-------6---6------6-|
-12-12----12----------------12----12--7-----------7----------|
-------------------------------------------------------------|
-------------------------------------------------------------|

-------5-----------5----|
-----5---5-------5---5--|
---6-------6---6------6-|
-7-----------7----------|
------------------------|
------------------------|
Tap to rate this tab
 
# A B C D E F G H I J K L M N O P Q R S T U V W X Y Z