Song name
# A B C D E F G H I J K L M N O P Q R S T U V W X Y Z

Thy Shall Remain - The Lovely Blossum tab

-Thy Shall Remain-
-The Lovely Blossum-

  +LEGEND+

*=PALM MUTE
/=PICK SCRAPE
~=LET RING

|---------------------------------------------------|
|---------------------------------------------------|
|---------------------------------------------------|
|--------------------------------------------0~~----|
|--------------------------------------------0~~----|
|---PICK SLIDE-\\\\\\\\\\\\\\\\\\\\\\\\\\\\\\0~~----|

|-------------------------------------|
|-------------------------------------|
|-------------------------------------|  x3
|-------------------------------------|
|-----8-5-7-5--7-8-7--5---------------|
|-0000--------5-5-5-------------------|
  ****

|-----------------------------------|
|-----------------------------------|
|-----------------------------------|
|---00-00-1~--00-00-1~--00-00-1~----|
|---00-00-1~--00-00-1~--00-00-1~----|
|---00-00-1~--00-00-1~--00-00-1~----|

YOU SHOULD KNOW THE WHOLE SONG BY NOW ITS JUST REPEATING IT..IF YOU DONT KNOW HOW THE 
GOES GOT TO WWW.MYSPACE.COM/THYSHALLREMAIN666..AND ADD THE BAND PLEASE..ITS ONLY A ONE MAN 
SO THERE IS NO OTHER GUITAR..
Tap to rate this tab
# A B C D E F G H I J K L M N O P Q R S T U V W X Y Z