Song name
# A B C D E F G H I J K L M N O P Q R S T U V W X Y Z

Thyrfing - Slaget tab

Band: Thyrfing
Album: Hednaland
Song: Slaget
Tabbed by: Martijn Wietsma
Tab Date: 25-04-03
Email: dalvanian@yahoo.com

Standard E Tuning

riff A:
|------------------------------------------------------------------|
|------------------------------------------------------------------|
|------------------------------------------------------------------|
|------------------------------------------------------------------|
|-8------8-------8-------8-----------------------------------------|
|-6------6-------6-------6-----------------------------------------|

riff B: (keyboard part)
|-6--6-7-6--6-4----------------------------------------------------|
|------------------------------------------------------------------|
|------------------------------------------------------------------|
|------------------------------------------------------------------|
|------------------------------------------------------------------|
|------------------------------------------------------------------|
					(4x)
riff C:
|------------------------------------------------------------------|
|------------------------------------------------------------------|
|------------------------------------------------------------------|
|------------------------------------------------------------------|
|-8-8--8-6---8-8--8-9----------------------------------------------|
|-6-6--6-4---6-6--6-7----------------------------------------------|
					(4x)
riff D:
|------------------------------------------------------------------|
|------------------------------------------------------------------|
|------------------------------------------------------------------|
|------------------------------------------------------------------|
|-8-----9------6------8--------------------------------------------|
|-6-----7------4------6--------------------------------------------|
					(2x)
riff E:
|------------------------------------------------------------------|
|------------------------------------------------------------------|
|------------------------------------------------------------------|
|------------------------------------------------------------------|
|-88888888-99999999-66666666-88888888------------------------------|
|-66666666-77777777-44444444-66666666------------------------------|
					(1x)
riff C:
|------------------------------------------------------------------|
|------------------------------------------------------------------|
|------------------------------------------------------------------|
|------------------------------------------------------------------|
|-8-8--8-6---8-8--8-9----------------------------------------------|
|-6-6--6-4---6-6--6-7----------------------------------------------|
					(4x)
riff D:
|------------------------------------------------------------------|
|------------------------------------------------------------------|
|------------------------------------------------------------------|
|------------------------------------------------------------------|
|-8-----9------6------8--------------------------------------------|
|-6-----7------4------6--------------------------------------------|
					(2x)
riff E:
|------------------------------------------------------------------|
|------------------------------------------------------------------|
|------------------------------------------------------------------|
|------------------------------------------------------------------|
|-88888888-99999999-66666666-88888888------------------------------|
|-66666666-77777777-44444444-66666666------------------------------|
					(1x)
riff C:
|------------------------------------------------------------------|
|------------------------------------------------------------------|
|------------------------------------------------------------------|
|------------------------------------------------------------------|
|-8-8--8-6---8-8--8-9----------------------------------------------|
|-6-6--6-4---6-6--6-7----------------------------------------------|
					(4x)
riff D:
|------------------------------------------------------------------|
|------------------------------------------------------------------|
|------------------------------------------------------------------|
|------------------------------------------------------------------|
|-8-----9------6------8--------------------------------------------|
|-6-----7------4------6--------------------------------------------|
					(2x)
riff E:
|------------------------------------------------------------------|
|------------------------------------------------------------------|
|------------------------------------------------------------------|
|------------------------------------------------------------------|
|-88888888-99999999-66666666-88888888------------------------------|
|-66666666-77777777-44444444-66666666------------------------------|
					(1x)
riff C:
|------------------------------------------------------------------|
|------------------------------------------------------------------|
|------------------------------------------------------------------|
|------------------------------------------------------------------|
|-8-8--8-6---8-8--8-9----------------------------------------------|
|-6-6--6-4---6-6--6-7----------------------------------------------|
					(4x)
riff F: (till end of song)
|------------------------------------------------------------------|
|------------------------------------------------------------------|
|------------------------------------------------------------------|
|------------------------------------------------------------------|
|------------------------------------------------------------------|
|-66666666-77777777-44444444-66666666------------------------------|
					(4x)
Tap to rate this tab
# A B C D E F G H I J K L M N O P Q R S T U V W X Y Z