Guitaretab - guitar tabs
Song name
# A B C D E F G H I J K L M N O P Q R S T U V W X Y Z

Thyrfing - Ty Merkret Skall Falla tab

Band: Thyrfing
Album: Hednaland
Song: ...Ty Mörkret Skall Falla
Tabbed by: Martijn Wietsma (Darkenelf)
Email: dalvanian@yahoo.com
Tab date: 25-04-03

Standard E Tuning

riff A:
|------------------------------------------------------------------|
|------------------------------------------------------------------|
|------------------------------------------------------------------|
|------------------------------------------------------------------|
|-3--------4-3-----4-3-----4-3-----4-3-----------------------------|
|-1--------2-1-----2-1-----2-1-----2-1-----------------------------|
[ Tab from: http://www.guitaretab.com/t/thyrfing/57394.html ]
riff B: (keyboard) under riff A
|---6-9-6-8-6-5-------6-9-6-8-6-5----------------------------------|
|-6-------------6---6-------------6--------------------------------|
|------------------------------------------------------------------|
|------------------------------------------------------------------|
|------------------------------------------------------------------|
|------------------------------------------------------------------|
					(4x)
riff C:
|------------------------------------------------------------------|
|------------------------------------------------------------------|
|------------------2-----------------------------------------------|
|----5-6---3-5---3-2-----------------------------------------------|
|-3--3-4---1-3---1-0---4-------------------------------------------|
|-1--------------------2-------------------------------------------|
					(4x)
riff D:
|------------------------------------------------------------------|
|------------------------------------------------------------------|
|----------2-------------------------------------------------------|
|-------3--2-------------------------------------------------------|
|-3-3---1--0--4----------------------------------------------------|
|-1-1---------2----------------------------------------------------|
					(6x)
riff C:
|------------------------------------------------------------------|
|------------------------------------------------------------------|
|------------------2-----------------------------------------------|
|----5-6---3-5---3-2-----------------------------------------------|
|-3--3-4---1-3---1-0---4-------------------------------------------|
|-1--------------------2-------------------------------------------|
					(4x)
riff D:
|------------------------------------------------------------------|
|------------------------------------------------------------------|
|----------2-------------------------------------------------------|
|-------3--2-------------------------------------------------------|
|-3-3---1--0--4----------------------------------------------------|
|-1-1---------2----------------------------------------------------|
					(6x)
riff C: (till end of song)
|------------------------------------------------------------------|
|------------------------------------------------------------------|
|------------------2-----------------------------------------------|
|----5-6---3-5---3-2-----------------------------------------------|
|-3--3-4---1-3---1-0---4-------------------------------------------|
|-1--------------------2-------------------------------------------|
					(4x)
Related for Ty Merkret Skall Falla tab