Guitaretab - guitar tabs
Song name
# A B C D E F G H I J K L M N O P Q R S T U V W X Y Z

Thyrfing - Askans Rike tab

Band: Thyrfing
Album: Valdr galga
Song: Askans Rike
Tabbed by: Martijn Wietsma (Darkenelf)
Tab Date: 30-04-2003
Email: dalvanian@yahoo.com

Standard E Tuning

riff A:
|-------------------------------------------------------------|
|-------------------------------------------------------------|
|-------------------------------------------------------------|
|-------------------------------------------------------------|
|-7----7-6-5--3----3-5-6--7----7-6-5--3-3--3-5-6--------------|
|-5-5--5-4-3--1-1--1-3-4--5-5--5-4-3--1-1--1-3-4--------------|
    x  x x x    x  x x x    x  x x x       x x x
[ Tab from: http://www.guitaretab.com/t/thyrfing/57396.html ]
riff B:
|-------------------------------------------------------------|
|-------------------------------------------------------------|
|-------------------------------------------------------------|
|-------------------------------------------------------------|
|-7--7-7-7-7--7--7-6-5---3--3-3-3-3--3--3-5-6-----------------|
|-5--5-5-5-5--5--5-4-3---1--1-1-1-1--1--1-3-4-----------------|
						(2x)
riff C:
|-------------------------------------------------------------|
|-------------------------------------------------------------|
|-------------------------------------------------------------|
|-------------------------------------------------------------|
|-7--7-7-7-7--7--7-6-5---3--3-3-3-3--3--3-5-6-----------------|
|-5--5-5-5-5--5--5-4-3---1--1-1-1-1--1--1-3-4-----------------|
	         x x x                  x x x	(2x)
riff B:
|-------------------------------------------------------------|
|-------------------------------------------------------------|
|-------------------------------------------------------------|
|-------------------------------------------------------------|
|-7--7-7-7-7--7--7-6-5---3--3-3-3-3--3--3-5-6-----------------|
|-5--5-5-5-5--5--5-4-3---1--1-1-1-1--1--1-3-4-----------------|
						(2x)
riff D:
|-------------------------------------------------------------|
|-------------------------------------------------------------|
|-------------------------------------------------------------|
|-------------------------------------------------------------|
|-3--3-3-3--6--6-6-6--10--10-10-10--10--10-10-10--------------|
|-1--1-1-1--4--4-4-4---8---8--8--8---8---8--8--8--------------|
						(4x)
riff E:
|-------------------------------------------------------------|
|-------------------------------------------------------------|
|-------------------------------------------------------------|
|-------------------------------------------------------------|
|-3--5--6-----------------------------------------------------|
|-1--3--4-----------------------------------------------------|
  x  x  x
riff B:
|-------------------------------------------------------------|
|-------------------------------------------------------------|
|-------------------------------------------------------------|
|-------------------------------------------------------------|
|-7--7-7-7-7--7--7-6-5---3--3-3-3-3--3--3-5-6-----------------|
|-5--5-5-5-5--5--5-4-3---1--1-1-1-1--1--1-3-4-----------------|
						(2x)
riff C:
|-------------------------------------------------------------|
|-------------------------------------------------------------|
|-------------------------------------------------------------|
|-------------------------------------------------------------|
|-7--7-7-7-7--7--7-6-5---3--3-3-3-3--3--3-5-6-----------------|
|-5--5-5-5-5--5--5-4-3---1--1-1-1-1--1--1-3-4-----------------|
	         x x x                  x x x	(2x)
riff B:
|-------------------------------------------------------------|
|-------------------------------------------------------------|
|-------------------------------------------------------------|
|-------------------------------------------------------------|
|-7--7-7-7-7--7--7-6-5---3--3-3-3-3--3--3-5-6-----------------|
|-5--5-5-5-5--5--5-4-3---1--1-1-1-1--1--1-3-4-----------------|
						(2x)
riff D:
|-------------------------------------------------------------|
|-------------------------------------------------------------|
|-------------------------------------------------------------|
|-------------------------------------------------------------|
|-3--3-3-3--6--6-6-6--10--10-10-10--10--10-10-10--------------|
|-1--1-1-1--4--4-4-4---8---8--8--8---8---8--8--8--------------|
						(4x)
riff F:
|-------------------------------------------------------------|
|--------8-10-8-----------------------------------------------|
|-7-9-10--------10-9----------12-11---------------------------|
|---------------------9-11-12---------------------------------|
|-------------------------------------------------------------|
|-------------------------------------------------------------|

|-------------------------------------------------------------|
|--------8-10-8-----------------------------------------------|
|-7-9-10--------10-9------------7-----------------------------|
|---------------------------7-9-----5-7----3-5----------------|
|---------------------7-7-7-------5------3--------------------|
|-------------------------------------------------------------|
						(4x)
riff G:
|-------------------------------------------------------------|
|-------------------------------------------------------------|
|-------------------------------------------------------------|
|-7-7-7-7--5-5-5-5--------------------------------------------|
|-5-5-5-5--3-3-3-3--------------------------------------------|
|-------------------------------------------------------------|
    x x      x x

riff H:
|-------------------------------------------------------------|
|-------------------------------------------------------------|
|-------------------------------------------------------------|
|-7--7-7--7-5--5-5--------------------------------------------|
|-5--5-5--5-3--3-3--5-----------------------------------------|
|-------------------3-----------------------------------------|
               x x				(3x)

|-------------------------------------------------------------|
|-------------------------------------------------------------|
|------------5-7----------------------------------------------|
|-7--7-7--7--3-5----------------------------------------------|
|-5--5-5--5---------------------------------------------------|
|-------------------------------------------------------------|
     x x					(1x)

riff H:
|-------------------------------------------------------------|
|-------------------------------------------------------------|
|-------------------------------------------------------------|
|-7--7-7--7-5--5-5--------------------------------------------|
|-5--5-5--5-3--3-3--5-----------------------------------------|
|-------------------3-----------------------------------------|
               x x				(3x)

|-------------------------------------------------------------|
|-------------------------------------------------------------|
|------------5-7----------------------------------------------|
|-7--7-7--7--3-5----------------------------------------------|
|-5--5-5--5---------------------------------------------------|
|-------------------------------------------------------------|
     x x					(1x)
Related for Askans Rike tab