Song name
# A B C D E F G H I J K L M N O P Q R S T U V W X Y Z

Thyrfing - A Burning Arrow tab

Standard E Tuning

riff A:
|---------------------------------------------------------------------|
|---------------------------------------------------------------------|
|---------------------------------------------------------------------|
|-2---------2----5-5-------2---------2----5-5-------------------------|
|-2----6-6--2----3-3-------2----6-6--2----3-3-------------------------|
|-0-0--4-4--0-0------------0-0--4-4--0-0------------------------------|

riff B:
|---------------------------------------------------------------------|
|---------------------------------------------------------------------|
|---------------------------------------------------------------------|
|-2-2-2--2--------------2-2-2--2---5-5-5--5---------------------------|
|-2-2-2--2---6-6-6--6---2-2-2--2---3-3-3--3---------------------------|
|-0-0-0--0---4-4-4--4---0-0-0--0--------------------------------------|
						(4x)
riff C:
|---------------------------------------------------------------------|
|---------------------------------------------------------------------|
|---------------------------------------------------------------------|
|-5-------5--------5--------------------------------------------------|
|-3-----6-3------6-3--------------------------------------------------|
|-------4--------4----------------------------------------------------|

riff D:
|---------------------------------------------------------------------|
|---------------------------------------------------------------------|
|---------------------------------------------------------------------|
|-5------5------------------------------------------------------------|
|-3--6---3--6--8------------------------------------------------------|
|----4------4--6------------------------------------------------------|
						(8x)
riff B:
|---------------------------------------------------------------------|
|---------------------------------------------------------------------|
|---------------------------------------------------------------------|
|-2-2-2--2--------------2-2-2--2---5-5-5--5---------------------------|
|-2-2-2--2---6-6-6--6---2-2-2--2---3-3-3--3---------------------------|
|-0-0-0--0---4-4-4--4---0-0-0--0--------------------------------------|
						(4x)
riff A:
|---------------------------------------------------------------------|
|---------------------------------------------------------------------|
|---------------------------------------------------------------------|
|-2---------2----5-5-------2---------2----5-5-------------------------|
|-2----6-6--2----3-3-------2----6-6--2----3-3-------------------------|
|-0-0--4-4--0-0------------0-0--4-4--0-0------------------------------|
						(2x)
riff E:
|---------------------------------------------------------------------|
|---------------------------------------------------------------------|
|---------------------------------------------------------------------|
|-5--5-5-5--8-7-----5--5-5-5------------------------------------------|
|-3--3-3-3--6-5-----3--3-3-3--6-8-------------------------------------|
|-----------------------------4-6-------------------------------------|
						(4x)
riff F: (till end of song)
|---------------------------------------------------------------------|
|---------------------------------------------------------------------|
|---------------------------------------------------------------------|
|-2-2-2--2--5-7--4-4--5-7----2-2-2--2--5-7--4-4--5-9------------------|
|-2-2-2--2--3-5--2-2--3-5----2-2-2--2--3-5--2-2--3-7------------------|
|-0-0-0--0-------------------0-0-0--0---------------------------------|
						(4x)

Tap to rate this tab
# A B C D E F G H I J K L M N O P Q R S T U V W X Y Z