Song name
# A B C D E F G H I J K L M N O P Q R S T U V W X Y Z

Thyrfing - En Doende Mans Furbannelse tab

Standard E Tuning

Intro (keyboard part)

riff A (chords)
|--------------------------------------------------------|
|--------------------------------------------------------|
|--------------7-8-7-------------------------------------|
|-5--3/5--555--5-6-5--10-8-7~--3/5-----------------------|
|-3--1/3--333----------8-6-5---1/3-----------------------|
|--------------------------------------------------------|
          xxx					(2x)

riff B
|--------------------------------------------------------|
|--------------------------------------------------------|
|--------------------------------------------------------|
|-5--3/5--5-555-5----------------------------------------|
|-3--1/3--3-333-3--3h5p3--6-----6--------5-----5---------|
|-------------------------4-444-4-6p4h6--3-333-3-4-3h4---|
            xxx             xxx            xxx
|--------------------------------------------------------|
|--------------------------------------------------------|
|--------------------------------------------------------|
|-5-555-5------------------------------------------------|
|-3-333-3--3h5p3--6-----6---------5-----5----------------|
|-----------------4-444-4--6p4h6--3-333-3-4-3h4----------|
    xxx             xxx            xxx

repeat riff A 2x
repeat riff B 1x

(keyboard part)

riff C
|--------------------------------------------------------|
|--------------------------------------------------------|
|--------------------------------------------------------|
|-5-55--5-55--8-88--6-66---------------------------------|
|-3-33--3-33--6-66--4-44---------------------------------|
|--------------------------------------------------------|
						(1x)
riff D
|--------------------------------------------------------|
|--------------------------------------------------------|
|--------------------------------------------------------|
|-5-----5-----8-----6------------------------------------|
|-3-----3-----6-----4------------------------------------|
|--------------------------------------------------------|
						(1x)
riff E
|--------------------------------------------------------|
|--------------------------------------------------------|
|--------------------------------------------------------|
|-5--------5--------8--6---------------------------------|
|-3-33-33--3-33-33--6--4---------------------------------|
|--------------------------------------------------------|
    xx xx    xx xx				(2x)

riff F (1:39)
|--------------------------------------------------------|
|--------------------------------------------------------|
|--------------------------------------------------------|
|-5---5------5---5------8---8------6---6-----------------|
|-3-3-3-333--3-3-3-333--6-6-6-666--4-4-4-444-------------|
|--------------------------------------------------------|
    x   xxx    x   xxx    x   xxx    x   xxx	(2x)

repeat riff D 2x

riff G (keyboard part)
|-------------------------------------------------------------|
|-------------------------------------------------------------|
|------------10-12--10---------------------10-12--10----------|
|-10--12-13------------13--12---10--12-13------------13-12-10-|
|-------------------------------------------------------------|
|-------------------------------------------------------------|

riff H (2:20)
|--------------------------------------------------------|
|--------------------------------------------------------|
|-77777777-----------------------------------------------|
|-55555555--88888888--7-8-10-----------------------------|
|-----------66666666--5-6--8-----------------------------|
|--------------------------------------------------------|
						(6x)
riff I (2:55) till end.

|--------------------------------------------------------|
|--------------------------------------------------------|
|-7------------------------------------------------------|
|-5----8--7-8-10-----------------------------------------|
|---66-6--5-6--8-----------------------------------------|
|--------------------------------------------------------|
    xx 						(6x)

Tap to rate this tab
# A B C D E F G H I J K L M N O P Q R S T U V W X Y Z