Song name
# A B C D E F G H I J K L M N O P Q R S T U V W X Y Z

Thyrfing - Hednaland tab

Standard E Tuning

Intro:

riff A (acoustic)
|-------------------------------------------------------|
|-------------------------------------------------------|
|-------------------------------------------------------|
|-----9----------9-----8--------------------------------|
|---9---9------9----------------------------------------|
|-7----------7------6-----------------------------------|
						(2X)
riff B (distortion)
|-------------------------------------------------------|
|-------------------------------------------------------|
|--------------------8----------------------------------|
|-8--8-9-6----8--8-9-6-9----8--8-9-6--------------------|
|-6--6-7-4----6--6-7---7----6--6-7-4----4--4-4-4-/--6---|
|---------------------------------------2--2-2-2-/--4---|
						(4x)
riff C
|---|----------------------------------------------------|
|---|----------------------------------------------------|
|---|----------------------------------------------------|
|---|----------------------------------------------------|
|---|----------------------------------------------------|
|-0-|-0-3h5-5--5/7/8-7\5\3---0-3h5-5--5-3-1-0-0----------|
						(2x)
riff D
|-------------------------------------------------------|
|-------------------------------------------------------|
|-------------------------------------------------------|
|-------------------------------------------------------|
|-0-3h5-5--5/7/8-7\5\3---0-3h5-5--5-3-1-0-0-------------|
|-------------------------------------------------------|
						(2x)
repeat riff C 2x
repeat riff D 2x
repeat riff C 2x

riff E (2:00)
|-------------------------------------------------------|
|-------------------------------------------------------|
|-------------------------------------------------------|
|-9-999-99--5-555-55--9-999-99--------------------------|
|-7-777-77--3-333-33--7-777-77--12--7-------------------|
|-------------------------------10--5-------------------|

|-------------------------------------------------------|
|-------------------------------------------------------|
|-------------------------------------------------------|
|-9-999-99--5-555-55--9-999-99--------------------------|
|-7-777-77--3-333-33--7-777-77--12----------------------|
|-------------------------------10----------------------|

riff F (2:12)
|-------------------------------------------------------|
|-------------------------------------------------------|
|-------------------------------------------------------|
|-------------------------------------------------------|
|-7-777-77--7-777-77---5-555-55--5-555-55---------------|
|-5-555-55--5-555-55---3-333-33--3-333-33---------------|

repeat riff E 1x
repeat riff F 1x

riff G (2:37) (chords)
|-------------------------------------------------------|
|-------------------------------------------------------|
|-------------------------------------------------------|
|------------------------------------8------------------|
|-333--5----333--5----333--5----333--6------------------|
|-111--3----111--3----111--3----111---------------------|
  xxx       xxx       xxx       xxx

riff G (2:37) (lead)
|-------------------------------------------------------|
|-----------------3--------------------3----------------|
|--------------5--------------------5-------------------|
|---------5--------------------5------------------------|
|-0-0-3-5---5----------0-0-3-5---5----------------------|
|-------------------------------------------------------|

riff H (2:50)
|-------------------------------------------------------|
|-------------------------------------------------------|
|-------------------------------------------------------|
|-----------------------------------------------------8-|
|-333-5-555-555---333-5-555-555---333-5-555-555---333-6-|
|-111-3-333-333---111-3-333-333---111-3-333-333---111---|

repeat riff G 1x
repeat riff H 2x

Riff I (ending riff)
|-------------------------------------------------------|
|-------------------------------------------------------|
|-------------------------------------------------------|
|-------------------------------------------------------|
|-333--5------------------------------------------------|
|-111--3------------------------------------------------|

Tap to rate this tab
 
# A B C D E F G H I J K L M N O P Q R S T U V W X Y Z