Guitaretab - guitar tabs
Song name
# A B C D E F G H I J K L M N O P Q R S T U V W X Y Z

Ti - Bring Em Out tab

Artist: T.I.
Song: Bring 'Em Out
Album: Urban Legend

This is just a simple guitar version of the song - the melody is the part
 by Swizz Beatz with TI rapping, and the chorus is the back and forth with
 the Jay Z sample ('all the hot girls yellin - bring em out bring em
 out'...). I played it along with the song and it sounded decent to me.
[ Tab from: http://www.guitaretab.com/t/ti/177865.html ]
Verse
e---------------------------------------------------------------------|
B---------------------------------------------------------------------|
G-------8------8------8------8-8-----------8------8------8------8-8---|
D---6------6------6------6--------------6------6------6------6--------|
A---------------------------------------------------------------------|
E---------------------------------------------------------------------|

Chorus
       **************palm mute***********************************
e---------------------------------------------------------------------|
B---------------------------------------------------------------------|
G--------------------3-3-3-3-3-3-3-3-4-4-4-4-4-4-4-6-6-6-6-6-6-6-6----|
D----4-4-4-4-4-4-4-4-3-3-3-3-3-3-3-3-4-4-4-4-4-4-4-6-6-6-6-6-6-6-6----|
A----4-4-4-4-4-4-4-4-1-1-1-1-1-1-1-1-2-2-2-2-2-2-2-4-4-4-4-4-4-4-4----|
E----2-2-2-2-2-2-2-2--------------------------------------------------|
Related for Bring Em Out tab