Song name
# A B C D E F G H I J K L M N O P Q R S T U V W X Y Z

Ti - Swagger Like Us tab

This really isnt the full song, its the background music... If you actually listen to 
song you can hear this in alot of it. Just pointing it out sorry if its not what you wanted

And most of this song, you wanna slide up and down on most of these, it sounds 
better like that to me


                                             (This part is an octave higher)
                                                            v v v v v
D|-6-8-9-11-4----6-8-9-2-1-8-4----6-8-9-11-8-4-4-8-4--------6-8-9-2-1--------|
A|---------------------------------------------------------------------------|
F|---------------------------------------------------------------------------|
C|---------------------------------------------------------------------------|
G|---------------------------------------------------------------------------|
C|---------------------------------------------------------------------------|

D|-6-8-9-11-4---6-8-9-2-1-8-4----6-8-9-11-4---6-8-9-2-1-8-4----6-8-9-11-8-4-4-8-4---|
A|----------------------------------------------------------------------------------|
F|----------------------------------------------------------------------------------|
C|----------------------------------------------------------------------------------|
G|----------------------------------------------------------------------------------|
C|----------------------------------------------------------------------------------|


D|-6-8-9-2-1---6-8-9-11-4---6-8-9-2-1-8-4----6-8-9-11-4---6-8-9-2-1-8-4------|
A|---------------------------------------------------------------------------|
F|---------------------------------------------------------------------------|
C|---------------------------------------------------------------------------|
G|---------------------------------------------------------------------------|
C|---------------------------------------------------------------------------|


D|-6-8-9-11-8-4-4-8-4----6-8-9-2-1---6-8-9-11-4---6-8-9-2-1-8-4--------------|
A|---------------------------------------------------------------------------|
F|---------------------------------------------------------------------------|
C|---------------------------------------------------------------------------|
G|---------------------------------------------------------------------------|
C|---------------------------------------------------------------------------|

D|-6-8-9-11-4---6-8-9-2-1-8-4---6-8-9-11-8-4-4-8-4---6-8-9-2-1---6-8-9-11-4--|
A|---------------------------------------------------------------------------|
F|---------------------------------------------------------------------------|
C|---------------------------------------------------------------------------|
G|---------------------------------------------------------------------------|
C|---------------------------------------------------------------------------|


D|-6-8-9-2-1-8-4---6-8-9-11-4---6-8-9-2-1-8-4---6-8-9-11-8-4-4-8-4---6-8-9-2-1---|
A|-------------------------------------------------------------------------------|
F|-------------------------------------------------------------------------------|
C|-------------------------------------------------------------------------------|
G|-------------------------------------------------------------------------------|
C|-------------------------------------------------------------------------------|

Hope you like it
Tap to rate this tab
# A B C D E F G H I J K L M N O P Q R S T U V W X Y Z