Song name
# A B C D E F G H I J K L M N O P Q R S T U V W X Y Z

Ti - Whatever You Like tab

E------------------------------------------|
B------------------------------------------|
G-----7-7--------------5-5-----------------|
D-----7-7----8-8--3-3--5-5-----------------|
A-----5-5----8-8--3-3--3-3-----------------|
E------------6-6--1-1----------------------|

E-12-12-10-12-8----------------------------|
B------------------------------------------|
G------------------------------------------|
D------------------------------------------|
A------------------------------------------|
E------------------------------------------|
Tap to rate this tab
 
# A B C D E F G H I J K L M N O P Q R S T U V W X Y Z