Song name
# A B C D E F G H I J K L M N O P Q R S T U V W X Y Z

Ti - Dead And Gone tab

Intro:
e |12-10------12----------12-10---------10-10---------10----13-12-10-10/12|
b |13----13~-----13----13-13----13~--13----12-12---------12-12------------|
g |14----12~--------12----12----12~--------12----12~--------12------------|
d |-----------------------------------------------------------------------|
a |-----------------------------------------------------------------------|
e |-----------------------------------------------------------------------|

Chords:
e |12--12--10--13-12---|
b |13--13--12--15-13---|
g |14--12--12--16-14---|
d |--------------------|
a |--------------------|
e |--------------------|

Figure out the strumming pattern. Its pretty easy.

Plucking:

e |------------------------------------|
b |------13-------13-------13-------13-|
g |---14-------14-------14-------14----|
d |------------------------------------|
a |12-------12-------12-------12-------|
e |------------------------------------|

e |------------------------------------|
b |------13-------13-------13-------13-|
g |---12-------12-------12-------12----|
d |------------------------------------|
a |10-------10-------10-------10-------|
e |------------------------------------|

e |------------------------------------|
b |------12-------12-------12-------12-|
g |---12-------12-------12-------12----|
d |------------------------------------|
a |10-------10-------10-------10-------|
e |------------------------------------|

e |------13-------13-------12-------12-|
b |---13-------13-------13-------13----|
g |------------------------------------|
d |10-------10-------10-------10-------|
a |------------------------------------|
e |------------------------------------|

Chorus:

e |12~-------12-12-12-12-15-17-12~--------12-12-12-12-15-17-10~|
b |----13-15------------------------13-15----------------------|
g |------------------------------------------------------------|
d |------------------------------------------------------------|
a |------------------------------------------------------------|
e |------------------------------------------------------------|

e |10-10-10-13-12-13~-12-10-12~|
b |----------------------------|
g |----------------------------|
d |----------------------------|
a |----------------------------|
e |----------------------------|
Tap to rate this tab
 
# A B C D E F G H I J K L M N O P Q R S T U V W X Y Z