Song name
# A B C D E F G H I J K L M N O P Q R S T U V W X Y Z

Ti - Thats All She Wrote tab

This is my first tab
It sounded right to me
There are several parts to it

Part I

E-----------------------------------------------------------------|
A-----------------------------------------------------------------|
D-----------------------------------------------------------------|
G-----------------------------------------------------------------|
B-3-3-3-3-3-3-3-3-3-3-3-3-3-2-2-2-2h3-3-3-3-3-3-3-3-3-3-3-3-2-2-2-|
E-----------------------------------------------------------------|

E-----------------------------------------------------------------|
A-----------------------------------------------------------------|
D-----------------------------------------------------------------|
G-----------------------------------------------------------------|
B-2h3-3-3-3-3-3-3-3-3-3-3-3-2-2-2-2h3-3-3-3-3-3-3-3-3-3-3-3-5-5-5-|
E-----------------------------------------------------------------|

--or--
Part II

e-6---6-6-6-6-6-6-6-6-6-6-6-6-6-6---------------------------------|
a-5---5-5-5-5-5-5-5-5-5-5-5-5-5-5---------------------------------|
d-7h8-8-8-8-8-8-8-8-8-8-8-8-7-7-7---------------------------------|
g-----------------------------------------------------------------|
b-----------------------------------------------------------------|
e-----------------------------------------------------------------|
Tap to rate this tab
 
# A B C D E F G H I J K L M N O P Q R S T U V W X Y Z