Song name
# A B C D E F G H I J K L M N O P Q R S T U V W X Y Z

Ti - Top Back tab

        main part(trumpets)
E---------------------3-6-10--3-6-10--8-6-|
B-8---3-6-8-3-6-8-6-3---------------------|
G-----------------------------------------|
D-----------------------------------------|
A-----------------------------------------|
E-----------------------------------------|

        fill(piano)
E-10-10-11-11-13-13-11-11-10-10--10-10-11-11-13-13-11-11-10-|
B-----------------------------------------------------------|
G-----------------------------------------------------------|
D-----------------------------------------------------------|
A-----------------------------------------------------------|
E-----------------------------------------------------------|

       other part(?)
E-------------------------556653-3-------3-------3-------55665810-|
B---3-1-3---3-1-3---3-1-3----------3-1-3---3-1-3---3-1-3----------|
G-0-------0-------0-----------------------------------------------|
D-----------------------------------------------------------------|
A-----------------------------------------------------------------|
E-----------------------------------------------------------------|

Thats it
Tap to rate this tab
# A B C D E F G H I J K L M N O P Q R S T U V W X Y Z