Song name
# A B C D E F G H I J K L M N O P Q R S T U V W X Y Z

Tiamat - Meliae tab

----------------------------------------------------------------------------
			     MELIAE - Tiamat
----------------------------------------------------------------------------

Tabbed by: A. Maclachlan
Email: bruntonfan@gmail.com

Tuning: Standard

This is the main / end solo of this beautiful song; I have posted the intro solo as a seperate tab.
Someone else has tabbed the chords for the song as well.
Please listen to the song for the timing, etc.
This is my first tab, so please excuse any mistakes.

Notes:
When a bend (b)is indicated, this is almost always a full tone bend.
A bend and release (br) means bending up a full tone and releasing to the original note.
When a hammer (h) is indicated, this is almost always an 'instant'  hammer, ie, should almost not hear the first note.
I am not sure about proper notation, but (sb) and (sr) indicate a slow bend  and a slow release respectively
(listen to the song!)
x indicates muting the note right after playing it.
~ indicates vibrato
\ slides down
/ slides up

e|-------------------------------------------------------------------------|
B|-------------------------------------------------------------------------|
G|-------------------------------------------------------------------------|
D|-7h9-7---7-9----7h9-7---7--------------------------7x---7h9-7---7-9------|
A|-------9--------------9---9-7-5---5-7-5----7-7-9(b)-----------9----------|
E|--------------------------------7----------------------------------------|

e|------------------------------------7--------7---------------------------|
B|----------------------------------7----10------10-7x---------------------|
G|-7-9-7---9(brbrbrbr)-7---7---9(b)----------------------9(br)-7---7-9-7---|
D|-----------------------9---------------------------------------9---------|
A|-------------------------------------------------------------------------|
E|-------------------------------------------------------------------------|

e|---------------------10-10-10~--\-----------10---------------------------|
B|----------10~---7/10----10-----------------------------------------------|
G|-9-7-9(b)-----------------------------9(sb)---(sr)-7---7-9-7-------------|
D|-----------------------------------------------------9-------9-7-9-7-----|
A|---------------------------------------------------------------------9-7-|
E|-------------------------------------------------------------------------|

e|-----------------------------------------------------7--7-7-7------------|
B|----------------------------------------------------11--------9-7--------|
G|------------------------7---7-9-9(br)-7---7--7-9-7-----------------------|
D|--------------------7-9---9-------------9--------------------------------|
A|-5---5-7-5------7-9------------------------------------------------------|
E|---7---------------------------------------------------------------------|

e|--------------------10--12-10-7----10x---12p10-12-10-7--7-------7--------|
B|----------------9/12--------------------------------------9-9-9---9-7----|
G|-9(brbrbrbrb~)--------------------------------------------------------9-7|
D|-------------------------------------------------------------------------|
A|-------------------------------------------------------------------------|
E|-------------------------------------------------------------------------|

e|---------------10x-----------------------------------------------7-------|
B|---------------------------------------------------------------7---------|
G|---7-9-7--9(sb)---9(sr)-7---7~-\------7------7-9-9(br)-7---7-9-----7-----|
D|-9------------------------9-------7h9---9--9-------------9---------------|
A|-------------------------------------------------------------------------|
E|-------------------------------------------------------------------------|

e|--------------------------------------------------7-7--------------------|
B|------------------------------------------------7-----10-7---------------|
G|-9(br)-7~--\--------------7---7---------7---7-9------------7-9-7~--\-----|
D|------------------7-9-7-9---9---9-7-9-9---9------------------------------|
A|----------------9--------------------------------------------------------|
E|-------------------------------------------------------------------------|

e|---------------------10---------------10---------------------------------|
B|-------------10--------------10----------10--------10--------------------|
G|-9(sb)--9(b)----9(b)----9(b)-----9(b)-------9(b)-------9(br)--7-9-7~-----|
D|-------------------------------------------------------------------------|
A|-------------------------------------------------------------------------|
E|-------------------------------------------------------------------------|
Tap to rate this tab
# A B C D E F G H I J K L M N O P Q R S T U V W X Y Z