Song name
# A B C D E F G H I J K L M N O P Q R S T U V W X Y Z

Tiamat - Circles tab

Song: Circles 

Tuning is standard: e, b, g, d, a, E

May have some mistakes!

Part 1(Intro)

|--------------0-----------|--------------0-----------|
|-----------1-----1--------|-----------1-----1--------|
|--------2-----------2-----|--------0-----------0-----|
|-----2-----------------2--|-----2-----------------2--|
|--0-----------------------|--3-----------------------|
|--------------------------|--------------------------|


|-----------------------|--------------0-----------|
|-----------0--1--------|-----------1-----1--------|
|--------0--------------|--------2-----------2-----|
|-----0-----------------|-----2-----------------2--|
|--2--------------------|--0-----------------------|
|-----------------------|--------------------------|


|--------------0-----------|-----------------------|
|-----------1-----1--------|-----------0--1--------|
|--------2-----------2-----|--------0--------------|
|-----2-----------------2--|-----0-----------------|
|--0-----------------------|--2--------------------|
|--------------------------|-----------------------|


|--------------0-----------|--------------0-----------|
|-----------1-----1--------|-----------1-----1--------|
|--------2-----------2-----|--------2-----------2-----|
|-----2-----------------2--|-----2-----------------2--|
|--0-----------------------|--0-----------------------|
|--------------------------|--------------------------|

Repeat part 1 for 3 times.

Chorus:
Em           Am
Floating in circles
F             G         Em        Em
Stars shine a light our way
 Am            Em      F            G
To meadows and fields, green as the grass
Em           Em
Where we lay down
G6        G6	
Forever...

Part 2:
Am   C   Em   Am
Am   Em  Am   Am

Play in background the part 1 along with this!



Solo:
Play part 2 in background

1st part
|---------------------------|--------------------------|
|--10g13----12--------12----|--12--12S----17-----------|
|---------------------------|--------------------------|
|---------------------------|--------------------------|
|---------------------------|--------------------------|
|---------------------------|--------------------------|


|-------------------------|----------------------------|
|--17--17--17-------------|----------------------------|
|-------------------------|----------------------------|
|-------------------------|--10--10-----10--10----9----|
|-------------------------|----------------------------|
|-------------------------|----------------------------|


|----------------------|--------------------12----|----------------------|
|----------------------|--12S----13---------------|----------------------|
|----------------------|--11S----12---------------|----------------------|
|--7--7--9-------------|--------------------------|----------------------|
|----------------------|--------------------------|----------------------|
|----------------------|--------------------------|--5----8--8--8--------|


|--------------------------|----------------------|
|--------------------------|----------------------|
|--------------------------|----------------------|
|--------------------------|----------------------|
|--------------------------|----------------------|
|--8h--10--10--------10----|--10b-----------------|

2nd part

|----------------------|----------------------|------------------------|
|----------------------|----------------------|------------------------|
|--8b--------9----7----|--7~--------5---------|------------------------|
|----------------------|-----------------7----|-----5--7----(7)--------|
|----------------------|----------------------|------------------------|
|----------------------|----------------------|------------------------|

|--------------------------|----------------------|-------------------|
|--------------------------|----------------------|-------------------|
|--------------------------|----------------------|-------------------|
|--x-----x-----x-----x-----|--9--------9--9--9----|-------------------|
|-----x-----x-----x-----x--|----------------------|-------------------|
|--------------------------|----------------------|-------------------|
                                      Do Harmonics on this note
|----------------------|-----------------------|-------------------|
|----------------------|-----------------------|-------------------|
|-----------------7----|--7----7------7--------|-------------------|
|--5--------x--x-------|-----------------------|-------------------|
|----------------------|-----------------------|-------------------|
|----------------------|-----------------------|-------------------|


|-----------------------|---------------------|----------------------|
|-------13--------12----|---------------------|--3----3----3----3----|
|--9--------------------|--9----9-------------|--2----2----2----2----|
|-----------------------|---------------------|----------------------|
|-----------------------|---------------------|----------------------|
|-----------------------|---------------------|----------------------|



|----------------------|
|--3----3----3----3----|
|--2----2----2----2----|
|----------------------|
|----------------------|
|----------------------|

If you got anything questions contact me at: oxpod@hotmail.com
Tap to rate this tab
 
# A B C D E F G H I J K L M N O P Q R S T U V W X Y Z