Guitaretab - guitar tabs
Song name
# A B C D E F G H I J K L M N O P Q R S T U V W X Y Z

Tiamat - For Her Pleasure tab

-------------------------------------------------------------------------------
			     For Her Pleasure - Tiamat
-------------------------------------------------------------------------------
Tabbed by:
Email: ajwtill@hotmail.co.uk

To my horror I discovered that no one had tabbed this song. (Apologies if I just didn't 
hard enough.) So I decided it would be a great song to make as my first tab.
I spent along time doing this and im sure there are plenty of mistakes, especially 
but I feel its a good effort. I hope you enjoy it.
Feel free to email me if you want to thank, recommend, criticise or carve your name in me.

Tuning: Standard

Intro Riff (guitar 1) x3
e|-------------------------------------------------------------------------------------------------|
B|-------------------------------------------------------------------------------------------------|
G|----9---9 \1--1-1----------------------1-------------9---9\1-1-1---------------------------------|
D|----------------------------4--4--4-2---------------------------------------4--4--4-2-----1-2-1-2|
A|-------------------------------------------------------------------------------------------------|
E|-------------------------------------------------------------------------------------------------|

After the first time, guitar 2 plays this with heavy distortion (x2)
Main/Chorus Riff

e|------------------------------------------------------------------------------------|
B|------------------------------------------------------------------------------------|
G|------------------------------------------------------------------------------------|
D|--4---4---4-----2--2-----------4---4---4------2--6---------11---11---11------9--14--|
A|--4---4---4-----2--2-----------4---4---4------2--6---------11---11---11------9--14--|
E|--2---2---2-----0--0-----------2---2---2------0--4----------9----9-----9-----7--12--|

e|-----------------------------------------------------------------------------|
B|-----------------------------------------------------------------------------|
G|-----------------------------------------------------------------------------|
D|----16---16---16-----14--14------7---7---------------------------------------|
A|----16---16---16-----14--14------7---7---------------------------------------|
E|----14---14---14-----12--12------5---5---------------------------------------|


Verse1 (this is the synth noise which is played in the verse. N.b.; I couldnít get the 
note but I represented it with a palm mute)


Erase the pictures from my mind, eliminate the presence of  your  kind
e|-------------------------------------------------------------------------------|
B|-------------------------------------------------------------------------------|
G|-------------------------------------------------------------------------------|
D|-------------------------------------------------------------------------------|
A|----------------------------------------------4--------------------------------|
E|-0----------2----0--------------------2-------------------------------0--------|

Eliminate the strings of instinct laws,          Just to fall into some other jaws
e|------------------------------------------------------------------------------------|
B|------------------------------------------------------------------------------------|
G|------------------------------------------------------------------------------------|
D|------------------------------------------------------------------------------------|
A|------------------------------------------------------------------------------------|
E|--x--------------------2----0--------------------2----4--------------------4--------|

In pounding afterglow I rise,          for the pleasure of dying twice
e|-----------------------------------------------------------------------------|
B|-----------------------------------------------------------------------------|
G|-----------------------------------------------------------------------------|
D|-----------------------------------------------------------------------------|
A|---------------------------------------------------4-------------------------|
E|---x-----------------2-----0--------------2--------------------0-------------|

A winged-cut angel in decline,               breathe my air and Iíll be fine!
e|------------------------------------------------------------------------------|
B|------------------------------------------------------------------------------|
G|------------------------------------------------------------------------------|
D|--------------------------------------------------------4------------(6)------|
A|---------------4--------------------------------------------------------------|
E|----0--------------2---0-----------------------------2-----------(2)----------|

Chorus (and what a chorus it is!) Play Main riff (x2)
Put your teeth in me!           Carve your name in me!     I donít care if there is--
e|------------------------------------------------------------------------------------|
B|------------------------------------------------------------------------------------|
G|------------------------------------------------------------------------------------|
D|--4---4---4-----2--2-----------4---4---4------2--6---------11---11---11------9--14--|
A|--4---4---4-----2--2-----------4---4---4------2--6---------11---11---11------9--14--|
E|--2---2---2-----0--0-----------2---2---2------0--4----------9----9-----9-----7--12--|
           --something that Iím too blind to see.
e|-----------------------------------------------------------------------------|
B|-----------------------------------------------------------------------------|
G|-----------------------------------------------------------------------------|
D|----16---16---16-----14--14----------7---7-----------------------------------|
A|----16---16---16-----14--14----------7---7-----------------------------------|
E|----14---14---14-----12--12----------5---5-----------------------------------|


Verse 2.

    Invite yourself, and fell free       to pick up splinter of debris
e|-------------------------------------------------------------------------------|
B|-------------------------------------------------------------------------------|
G|-------------------------------------------------------------------------------|
D|-------------------------------------------------------------------------------|
A|----------------------------------------------4--------------------------------|
E|-0----------2----0--------------------2-------------------------------0--------|

Itís in your system exclusive,               subdues all thatís delusive
e|------------------------------------------------------------------------------------|
B|------------------------------------------------------------------------------------|
G|------------------------------------------------------------------------------------|
D|------------------------------------------------------------------------------------|
A|------------------------------------------------------------------------------------|
E|--x--------------------2----0--------------------2----4--------------------4--------|
[ Tab from: http://www.guitaretab.com/t/tiamat/181182.html ]
Initially this lie Iíd recall,       but again I crawl this dirty soil
e|-----------------------------------------------------------------------------|
B|-----------------------------------------------------------------------------|
G|-----------------------------------------------------------------------------|
D|-----------------------------------------------------------------------------|
A|---------------------------------------------------4-------------------------|
E|---x-----------------2-----0--------------2--------------------0-------------|

Of all possessions I did treasure,      this ones strictly for her pleasure!
e|-----------------------------------------------------------------------------|
B|-----------------------------------------------------------------------------|
G|-----------------------------------------------------------------------------|
D|-------------------------------------------------------------4-------4-------|
A|---------------4-------------------------------------------------------------|
E|----0--------------2---0-----------------------------2-----------------------|

Bridge  (I recommend you finger pick this gently) Guitar 3. Clean
(The bracketed chords are the synth notes which accompany  the guitar.
Donít play them on the same guitar!)
e|--------------------------------------------------------------------------------|
B|--------------------------------------------------------------------------------|
G|-----6---9--------6---6---8--------6--6---9---------6--------6-----6------------|
D|----------------------------------------------------------------6---------------|
A|-------(4)----------------------------------------------------------------------|
E|-------(4)----------------------------------------------------------------------|


e|-----------------------------------------------------------------------------------|
B|-----------------------------------------------------------------------------------|
G|-----6---9--------6---6---8--------6--6---9---------6--------6---------------------|
D|-----------------------------------------(4)----------------(6)--------------------|
A|-----------------------------------------(4)----------------(6)--------------------|
E|-----------------------------------------(2)----------------(4)--------------------|

e|--------------------------------------------------------------------------------|
B|--------------------------------------------------------------------------------|
G|-----6---9--------6---6---8--------6--6---9---------6--------6----6-------------|
D|----------------------------------------------------------------6---------------|
A|-------(4)----------------------------------------------------------------------|
E|-------(4)----------------------------------------------------------------------|

e|--------------------------------------------------------------------------------------|
B|--------------------------------------------------------------------------------------|
G|-----6---9--------6---6---8--------6--6---9---------6--------6------------------------|
D|---------------------(14)----------------(4)--- (14)-----(14)(6)----------------------|
A|-------(4)-------------------------------(4)-------------------(6)--------------------|
E|-------(4)------------ -(16)-(14)-------(2)-------------------(4)---------------------|


Then the main riff and intro riff are both played together twice
Guitar 1
e|-------------------------------------------------------------------------------------------------|
B|-------------------------------------------------------------------------------------------------|
G|----9---9 \1--1-1----------------------1-------------9---9\1-1-1---------------------------------|
D|----------------------------4--4--4-2---------------------------------------4--4--4-2-----1-2-1-2|
A|-------------------------------------------------------------------------------------------------|
E|-------------------------------------------------------------------------------------------------|

Guitar 2
e|------------------------------------------------------------------------------------|
B|------------------------------------------------------------------------------------|
G|------------------------------------------------------------------------------------|
D|--4---4---4-----2--2-----------4---4---4------2--6---------11---11---11------9--14--|
A|--4---4---4-----2--2-----------4---4---4------2--6---------11---11---11------9--14--|
E|--2---2---2-----0--0-----------2---2---2------0--4----------9----9-----9-----7--12--|

e|-----------------------------------------------------------------------------|
B|-----------------------------------------------------------------------------|
G|-----------------------------------------------------------------------------|
D|----16---16---16-----14--14------7---7---------------------------------------|
A|----16---16---16-----14--14------7---7---------------------------------------|
E|----14---14---14-----12--12------5---5---------------------------------------|


Then there is the standard chorus again (riff x2)

Put your teeth in me!           Carve your name in me!     I donít care if there is--
e|------------------------------------------------------------------------------------|
B|------------------------------------------------------------------------------------|
G|------------------------------------------------------------------------------------|
D|--4---4---4-----2--2-----------4---4---4------2--6---------11---11---11------9--14--|
A|--4---4---4-----2--2-----------4---4---4------2--6---------11---11---11------9--14--|
E|--2---2---2-----0--0-----------2---2---2------0--4----------9----9-----9-----7--12--|

 --something that Iím too blind to see.
e|--------------------------------------------|
B|--------------------------------------------| Guitar 2 plays this
G|--------------------------------------------|    until the outro
D|----16---16---16-----14--14----------7---7--|
A|----16---16---16-----14--14----------7---7--|
E|----14---14---14-----12--12----------5---5--|


Then the first part of the intro riff plays with the bridge
(Guitar 1)
e|----------------------------------------------------------|
B|----------------------------------------------------------|
G|----9---9 \1--1-1----------------------1------------------|
D|----------------------------4--4--4-2---------------------|
A|----------------------------------------------------------|
E|----------------------------------------------------------|
(Guitar 3)
e|------------------------------------------------------------------------------|
B|------------------------------------------------------------------------------|
G|-----6---9--------6---6---8--------6--6---9---------6--------6----------------|
D|-------------------------------------------------------------6----------------|
A|------------------------------------------------------------------------------|
E|--------- --------------------------------------------------------------------|

e|-----------------------------------------------------------------------------|
B|-----------------------------------------------------------------------------|
G|-----6---9--------6---6---8--------6--6---9---------6--------6---------------|
D|------------------------------------------------ ----------------------------|
A|-----------------------------------------------------------------------------|
Then finally the Bridge repeats several times along with the weird Ďswaying back and forth' women.


| /  slide up
| \  slide down
| h  hammer-on
| p  pull-off
| ~  vibrato
| +  harmonic
| x  Mute note
===============================================================================
Related for For Her Pleasure tab