Song name
# A B C D E F G H I J K L M N O P Q R S T U V W X Y Z

Tiamat - Too Far Gone tab

Tiamat - Too Far Gone

Tabbed by ceph 

Standard tuning (E A D G B e)

Listen to song for rhythm.

Intro / Solo:                                          
|---5--8-5-------------------------------|--5h8p5--------------------|*-------------*|
|----------8-5---------5h8p5-------------|--------8-5-------5-8--5-8-|-5-8-5---------|
|---------------5h7-7--------7--5--------|------------7-5h7----------|-------7--5-5--|
|----------------------------------7--7--|---------------------------|---------------|
|----------------------------------------|---------------------------|---------------|
|----------------------------------------|---------------------------|*-------------*|
           
|--------------------------|*----------*|--5h8p5-8-8-5--------------------------------------|
|----------------------5---|---5--------|--------------5------5-5-5-8----------------5------|
|------------5x--5b--7---7-|-7---7-5----|-----------------5h7---------7------5-5-5-7---5-5--|
|--------5-7---------------|---------7--|--------------------------------5h7----------------|
|--5-7-8-------------------|------------|---------------------------------------------------|
|--------------------------|*----------*|---------------------------------------------------|

* These are repeated by some sort of delay/echo thing, 
you could just try to play them a second time, but much lighter.

Chords played during solo:

Am C G F

Another guy has already tabbed the chord-part so check his tab. It was nicely done. :)
Tap to rate this tab
# A B C D E F G H I J K L M N O P Q R S T U V W X Y Z