Song name
# A B C D E F G H I J K L M N O P Q R S T U V W X Y Z

Tiamat - A Deeper Kind Of Slumber tab

TIAMAT - A DEEPER KIND OF SLUMBER

>From album "A Deeper Kind Of Slumber"


It is a very simple song, played with 3 chords only:


clean sound

E -------------------------------------
B -------------------------------------
G -------0-------0-------0-------0-----
D -----6-------6-------6-------6-------
A ---8-------8-------8-------8---------
E -------------------------------------

E -------------------------------------
B -------------------------------------
G -------0-------0-------0-------0-----
D -----5-------5-------5-------5-------
A ---6-------6-------6-------6---------
E -------------------------------------

E -------------------------------------
B -------------------------------------
G -------0-------0-------0-------0-----
D -----8-------8-------8-------8-------
A ---7-------7-------7-------7---------
E -------------------------------------


Flute adapted to guitar (begins at 4.36, play 2 times)

E ---------------------------------------------------
B ---9--8--6-----6--4-----9--8--6------6--11--9--8---
G ---------------------------------------------------
D ---------------------------------------------------
A ---------------------------------------------------
E ---------------------------------------------------


Tabbed by Alex (aaverson@evr.ee)
Tap to rate this tab
# A B C D E F G H I J K L M N O P Q R S T U V W X Y Z