Song name
# A B C D E F G H I J K L M N O P Q R S T U V W X Y Z

Tiamat - Only In My Tears It Lasts tab

                       Only in my Tears it lasts by Tiamat
                        from album Deeper kind of slumber

I didnt find much else to tab ...
I'll finish this as soon as i get my guitar back...

Solo:
|----------------------------------------------------------------------------
|----------------------------------------------------------------------------
|-19b---191919---17h19p17p15-17----------------------------------------------
|---------------------------------1616-16------------------------------------
|---------------------------------1515-15----17h19-19---19p16-17-19--17-19-?-
|----------------------------------------------------------------------------

|--------------------------------
|--------------------------------
|---17---------------------------
|--------17h19-19--17-----17-17--
|-17------------------19---------
|--------------------------------

Ornskuge@ksilta.edu.ouka.fi
Tap to rate this tab
 
# A B C D E F G H I J K L M N O P Q R S T U V W X Y Z