Guitaretab - guitar tabs
Song name
# A B C D E F G H I J K L M N O P Q R S T U V W X Y Z
Home / T / Tiamat / Cain tab

Tiamat - Cain tab

TIAMAT - CAIN
                   From the album "Prey"
                Copyright 2004, Century Media

 Intro
 -------I-------I-------I----------|I
 -----4-I-----4-I-----4-I-5-4---4--|I
 ---4---I---4---I---4---I-----4----|I
 -6-----I-6-----I-6-----I----------|I
 -------I-------I-------I----------|I
 -------I-------I-------I----------|I

 Intro - Back Guitar         X3
 -----------------------------I----------------------|I
 -----------------------------I----------------------|I
 -----------------------------I----------------------|I
 -6--6--6--6-6--6/9--6/9--6/9-I-11--11--11--11/13/9--|I
 -6--6--6--6-6--6/9--6/9--6/9-I-11--11--11--11/13/9--|I
 -4--4--4--4-4--4/7--4/7--4/7-I-9---9---9---9-/11/7--|I


 Words
 --------------------------|I
 --------------------------|I
 --------------------------|I
 -6--------------7------6--|I
 -6--------------7------6--|I
 -4--------------5------4--|I

[ Tab from: http://www.guitaretab.com/t/tiamat/48990.html ]
                                 x2
 I---------------------------------|I
 I---------------------------------|I
 I---------------------------------|I
 I-6--X-X--6--X-X--6--X-X--6-------|X-X-I
 I-6--X-X--6--X-X--6--X-X--6-------|X-X-I
 I-4--X-X--4--X-X--4--X-X--4-------|X-X-I


 -----------------------------------------------------------------|I
 -----------------------------------------------------------------|I
 -----------------------------------------------------------------|I
 -7--X-X--7--X-X--7--X-X--7--X-X--6--X-X--6--X-X--6--X-X--6-------|X-X-I
 -7--X-X--7--X-X--7--X-X--7--X-X--6--X-X--6--X-X--6--X-X--6-------|X-X-I
 -5--X-X--5--X-X--5--X-X--5--X-X--4--X-X--4--X-X--4--X-X--4-------|X-X-I


 Chorus
 --------------------------------I---------------------------------|I
 --------------------------------I---------------------------------|I
 --------------------------------I---------------------------------|I
 -6--6-6--6--6-6--9--9-9--9--9-9-I-8--8-8--8--8-8--9--9-9--9--9-9--|I
 -6--6-6--6--6-6--9--9-9--9--9-9-I-8--8-8--8--8-8--9--9-9--9--9-9--|I
 -4--4-4--4--4-4--7--7-7--7--7-7-I-6--6-6--6--6-6--7--7-7--7--7-7--|I

I copied this off Firetabs though it is more accurate than anything I have played here 
UG could use more Tiamat.
Related for Cain tab
Cain chords by Tiamat