Song name
# A B C D E F G H I J K L M N O P Q R S T U V W X Y Z

Tickle Me Pink - Strange Life tab

Tickle Me Pink - Strange Life (Drop D)--- Tabbed by: Evan Campbell

I couldn't find this song tabbed anywhere so I just did it. 

I don't have the time to do the entire song, but I feel like if you learn these 
parts out you could figure out the rest easily

*Intro
e---------|
B-----3---|
G---------| Play this
D---------| 4 times
A--2-2----|
D---------|

e-----------------------|
B----3----3----3----5---|
G-----------------------| Play this
D---0----0----0----0----| 3 times
A--2--------------------|
D-------5----4----4-----|

e-------------------------------X-X-X-X---------------------------------|
B-------------------------------X-X-X-X---------------------------------|
G----------------4--4~--4-------X-X-X-X---------------------------------|
D----------------4--4~--4-------X-X-X-X-----------------4---------------|
A--0-0~---5-5~---2--2~--2---5~--X-X-X-X---0------5------4------5--------|
D--0-0~---5-5~--------------5~--X-X-X-X---0-x12--5-x12--2-x12--5-x12----|



If you have any comments or whatnot drop me a e-mail: guitarboy1404@yahoo.com
Tap to rate this tab
 
# A B C D E F G H I J K L M N O P Q R S T U V W X Y Z