Song name
# A B C D E F G H I J K L M N O P Q R S T U V W X Y Z

Tides Of Man - Create Couldnt Keep Up tab

-------------------------------------------------------------------------------
			     Create Couldnt Keep Up - Tides Of Man
-------------------------------------------------------------------------------

Album: Tides Of Man EP

Tabbed by: Dannyboy9494

Tuning: Standard

Note: All Of the notes in the intro are harmonics.

0.00 - 0.56

e|-------------------12----------------------12-------------------------12---------|
B|------12-----------------------12-------------------------12---------------------|
G|----------12----------------------12--------------------------12-----------------|
D|---------------------------------------------------------------------------------|
A|--------------12----------------------12--------------------------12-------------|
E|--12-----------------------12---------------------12-----------------------------|

e|------------------7---------------------------------------------------------|
B|-------7--------------------------------------------------------------------|
G|----------7-----------------------------------------------------------------|
D|----------------------------------------------------------------------------|
A|---------------7------------------------------------------------------------|
E|--7-------------------------------------------------------------------------|

Then Play With These Two Chords Until 3.50

e|-----------------------------------------------------------------------------|
B|-----------------------------------------------------------------------------|
G|---9--------5----------------------------------------------------------------|
D|---9--------5----------------------------------------------------------------|
A|---7--------3----------------------------------------------------------------|
E|-----------------------------------------------------------------------------|

A Really Good New Signed Band To Rise Records

http://www.myspace.com/tidesofman

Tap to rate this tab
# A B C D E F G H I J K L M N O P Q R S T U V W X Y Z