Song name
# A B C D E F G H I J K L M N O P Q R S T U V W X Y Z

Tides Of Man - Not My Love tab

First Tab! Way to go! tell me how it is: skateventure93@aol.com

E---------------------------------------------------------|
B---------------------------------------------------------|
G---4------------4-----------4-----------4----------------|
D-----5-7-4-5------5-7-4-5-----5-7-4-5-----5-7-4-5--------|
A-7------------7-----------7-----------7------------------|
E---------------------------------------------------------|

E---------------------------------------------------------|
B---------------------------------------------------------|
G---5------------5-----------5-----------5----------------|
D-----7-9-5-7------7-9-5-7-----7-9-5-7-----7-9-5-7--------|
A-9------------9-----------9-----------9------------------|
E---------------------------------------------------------|

E---------------------------------------------------------|
B----------------888--------------------------------------|
G------------777----------------777-----------------------|
D--------999----------------999-----999-------------------|
A-101010-------------101010-------------------------------|
E---------------------------------------------------------|

E-------------------------------------------------------------------|
B------------------------------------121212121212-------------------|
G-----------------------------888888-x x x x x x--------------------|
D-----------------------------xxxxxx-9 9 9 9 9-9--------------------|
A-0-2-3--0-2-3--0-2-3--0-2-3--666666--------------------------------|
E-------------------------------------------------------------------|
Tap to rate this tab
 
# A B C D E F G H I J K L M N O P Q R S T U V W X Y Z