Tides Of Man - Young And Courageous tab

-------------------------------------------------------------------------------
                             Young and Courageous - Tides Of Man
-------------------------------------------------------------------------------
Tabbed by:SizzlingLoaf
E-mail: njachiu@gmail.com

Tuning: Standard

*Listening to the song for timing always helps*

[0:00-0:31]
e|---------------------------------------------------------------------------|
B|---------------------------------------------------------------------------|
G|---------------------------------------------------------------------------|  
D|-------5----------9--------4--------5----2---------------------------------|
A|----7---------10--------5--------7-------3---------------------------------|
E|-7--------10---------5--------7-------3------------------------------------|

e|---------------------------------------------------------------------------|
B|---------------------------------------------------------------------------|
G|---------------------------------------------------------------------------|  
D|-------5----------9--------4--------5----2--0h2----------------------------|
A|----7---------10--------5--------7-------3---------------------------------|
E|-7--------10---------5--------7-------3------------------------------------|




************************************

| /   slide up
| \   slide down
| h   hammer-on
| p   pull-off
| ~   vibrato
| +   harmonic
| x   Mute note
| b   Bend
| pb  Pre-bend
| br  Bend release
| pbr Pre-bend release
| brb Bend release bend

************************************
Tap to rate this tab
 
# A B C D E F G H I J K L M N O P Q R S T U V W X Y Z