Song name
# A B C D E F G H I J K L M N O P Q R S T U V W X Y Z

Tierra Santa - Mi Nombre Sera Leyenda tab

Mi nombre sera leyenda intro tab

e------------------------------------------------|
b------------------------------------------------|
g-------11-------------11-13-14-------11-13-14---|
d------------------------------------------------|
a------------------------------------------------|
e------------------------------------------------|

e------------------------------------------------|
b--------------12-----------12-------------------|
g---11-13--14------14-13-14----14-13------14-----|
d------------------------------------------------|
a------------------------------------------------|
e------------------------------------------------|

e-------------------------------|
b-------------------------------|
g-----13-----11-----------------|
d-------------------------------| (x4)
a-------------------------------|
e-------------------------------|


Escucha la cancion para marcar el ritmo.
Tap to rate this tab
 
# A B C D E F G H I J K L M N O P Q R S T U V W X Y Z