Song name
# A B C D E F G H I J K L M N O P Q R S T U V W X Y Z

Tierra Santa - Septima Estrella tab

                               SÚptima Estrella                                 


                                                                    Tierra Santa
Guitar 1



          Intro                                                 
     S    W                     E  S S S S S S S S S S S S S S  
E||----|-------------------||----------------------------------|
B||----|-------------------||----------------------------------|
G||----|-------------------||*---------------------------------|
D||----|-------------------||*-------7-5-7-8-7-5-7-5---5-------|
A||----|-------------------||---5--5-----------------8---8-7---|
E||----|-------------------||--------------------------------8-|


  E  S S S S S S S S S S S S S S    E  S S S S S S S S S S S S S S  
---------------------------------|---------------------------------|
---------------------------------|---------------------------------|
---------------------------------|---------------------------------|
-------7-5-7-8-7-5-7-5---5-------|-------------5-------------------|
--5--5-----------------8---8-7---|-------8-7-8---8-7-8-7-5-7-5-----|
-------------------------------8-|--6--6-----------------------8-6-|


                                      Riff A                            
  E  S S S S S S S S S S S S S S      E      S S S S S S E  S S S S E   
----------------------------------||-----------------------------------|
----------------------------------||-----------------------------------|
---------------------------------*||-----------------------------------|
-------------5-------------------*||-----------------------------------|
-------5-7-8---8-7-5-------5-7----||--5------5-7-8-7-5---5--5-7-8-5----|
--8--8---------------8-6-8-----8--||-------------------8---------------|


  E  S S S S S S E  S S S S S S    E  S S  S S S  S E  S S  S S E   
--------------------------------|----------------------------------|
--------------------------------|----------------------------------|
--------------------------------|--7--7-9-10-9-7----7--7-9-10-7----|
--------------------------------|----------------10----------------|
--5--5-7-8-7-5----------5-7-5---|----------------------------------|
---------------8-6--6-8-------8-|----------------------------------|


  E  S S  S S S  S E  S  S S S S  S  
------------------------------------|
------------------------------------|
--7--7-9-10-9-7------------7-9-7----|
----------------10-8--8-10-------10-|
------------------------------------|
------------------------------------|


  Verse Riff 1                                                               
  E            S S S S S S S S S S S S S S    E  S S S S S S E  S S S S S S  
-------------------------------------------|--------------------------------|
-------------------------------------------|--------------------------------|
-------------------------------------------|--------------------------------|
--2----------------------------------------|--5-----------------------------|
--0------------0-0-0-0-0-0-0-0-0-0-0-0-0-0-|--3--3-3-3-3-3-3-5--------------|
-------------------------------------------|-----------------3--3-3-3-3-3-3-|


  E  S S S S S S S S S S S S S S    E  S S S S S S E  S S S S  S S  
---------------------------------|---------------------------------|
---------------------------------|---------------------------------|
---------------------------------|---------------------------------|
--2------------------------------|--5------------------------------|
--0--0-0-0-0-0-0-0-0-0-0-0-0-0-0-|--3--3-3-3-3-3-3-5--0-2-3-2p-0---|
---------------------------------|-----------------3-------------3-|


  E  S S S S S S S S S S S S S S    E  S S S S S S S S S S S S S S  
---------------------------------|---------------------------------|
---------------------------------|---------------------------------|
---------------------------------|---------------------------------|
---------------------------------|---------------------------------|
--3------------------------------|--2------------------------------|
--1--1-1-1-1-1-1-1-1-1-1-1-1-1-1-|--0--0-0-0-0-0-0-0-0-0-0-0-0-0-0-|


  E  S S S S S S S S S S S S S S    E  S S S S S S E  S S S S S S  
---------------------------------|--------------------------------|
---------------------------------|--------------------------------|
---------------------------------|--------------------------------|
---------------------------------|--------------------------------|
--3------------------------------|--5--------------2--------------|
--1--1-1-1-1-1-1-1-1-1-1-1-1-1-1-|--3--3-3-3-3-3-3-0--0-0-0-0-0-0-|


  Chorus                                                                
  E      S S S S S S S S S S S S S S    E  S S S S S S E  S S S S  S S  
-------------------------------------|---------------------------------|
-------------------------------------|---------------------------------|
-------------------------------------|---------------------------------|
--2----------------------------------|---------------------------------|
--0------0-0-0-0-0-0-0-0-0-0-0-0-0-0-|--5--------------3--0-2-3-2p-0---|
-------------------------------------|--3--3-3-3-3-3-3-1-------------3-|


  E  S S S S S S S S S S S S S S    E  S S S S S S E  S S E  S S  
---------------------------------|-------------------------------|
---------------------------------|-------------------------------|
---------------------------------|-------------------------------|
--2------------------------------|-----------------5--x-x--------|
--0--0-0-0-0-0-0-0-0-0-0-0-0-0-0-|--3--------------3--x-x-5--x-x-|
---------------------------------|--1--1-1-1-1-1-1--------3--x-x-|


  E  S S S S S S S S S S S S S S    E  S S S S S S E  S S S S  S S  
---------------------------------|---------------------------------|
---------------------------------|---------------------------------|
---------------------------------|---------------------------------|
--2------------------------------|---------------------------------|
--0--0-0-0-0-0-0-0-0-0-0-0-0-0-0-|--5--------------3--0-2-3-2p-0---|
---------------------------------|--3--3-3-3-3-3-3-1-------------3-|


  E  S S S S S S S S S S S S S S    E  S S S S S S E  S S S S S S  
---------------------------------|--------------------------------|
---------------------------------|--------------------------------|
---------------------------------|--------------------------------|
--5------------------------------|--7--------------9--------------|
--3--3-3-3-3-3-3-3-3-3-3-3-3-3-3-|--5--5-5-5-5-5-5-7--7-7-7-7-7-7-|
---------------------------------|--------------------------------|


                                       Interlude 1                              
  S S S S S S S S S S S S S S S S      E           S S S S S S S S S S S S S S  
----------------------------------||-------------------------------------------|
----------------------------------||-------------------------------------5-----|
----------------------------------||*------------------4-5---4-5-7-4-5-7---7-5-|
----------------------------------||*--7-----------5-7-----7-------------------|
--7-7-7-7-7-7-7-7-7-7-7-7-7-7-7-7-||-------------------------------------------|
----------------------------------||-------------------------------------------|


  S S S S S S S S S S S S S S E     E  S S S S S S S S S S S S S S  
---------------------------------|---------------------------------|
----------------------------5-L--|---------------------------5-----|
--4-------4-5---4-5-7-4-5-7------|---------4-5---4-5-7-4-5-7---7-5-|
----7-5-7-----7------------------|--7--5-7-----7-------------------|
---------------------------------|---------------------------------|
---------------------------------|---------------------------------|


                                          Solo 1                             
  S S S S S S S S S S S S S S E           E.   E   E   E   S  S S  S  S  E   
----------------------------------||----------------------------------------|
----6-5-----5---------------------||--10g12---13--12--10--10---------10~-L--|
--4-----7-5---7-5-4-7-5-4--------*||-------------------------12-L-12--------|
--------------------------5-7-L--*||----------------------------------------|
----------------------------------||----------------------------------------|
----------------------------------||----------------------------------------|


                                             TP  TP  TP  TP  TP  TP  TP TP  
   E   S  S   S  S  S   S  S  S  E  Q        E   E   E   E   E   E   E  E   
--10-------------------------------------|--15--13--12--10-----------------|
------13-12p-10-13-12p-10----10~-L--L----|------------------13--12--10--8--|
--------------------------12-------------|---------------------------------|
-----------------------------------------|---------------------------------|
-----------------------------------------|---------------------------------|
-----------------------------------------|---------------------------------|


   TP TP TP  TP                                                     
   E  E  E   E  H            E  S  S  S S  S S S  S  S S S  S S  S  
--------------------------|----------------------------------------|
--------------------------|-----------------------------------8-10-|
--10--9--7----------------|------------------7-9-10p-9-7-9-10------|
------------10--9~--------|--7--9-10p-7-9-10-----------------------|
--------------------------|----------------------------------------|
--------------------------|----------------------------------------|


                                      NH         
         |---3---|      |--3--|                  
   S  S  S   S   S S  S S  S  S S S   E  Q       
------------------------------------------------|
--12-10-----------------------------------------|
--------12p-11h-12-9-11-9p-7h-9-7-9------7br----|
------------------------------------<>7---------|
------------------------------------------------|
------------------------------------------------|


   TP  TP  TP  TP  TP  TP  TP  TP     TP  TP  TP  TP             
   E   E   E   E   E   E   E   E      E   E   E   E   H          
------------------10--12--10--12--|--13--12--13--15--15b--------|
--10--13--12--13------------------|-----------------------------|
----------------------------------|-----------------------------|
----------------------------------|-----------------------------|
----------------------------------|-----------------------------|
----------------------------------|-----------------------------|


    Interlude 2                                               
    W                   W                   W                 
|--------------------|-------------------|-------------------|
|--------------------|-------------------|-------------------|
|*-------------------|-------------------|-------------------|
|*--7----------------|--3----------------|--5----------------|
|---5----------------|--1----------------|--3----------------|
|--------------------|-------------------|-------------------|


                           Verse Riff 2                          
  H        Q    Q          W                   W                 
----------------------||--------------------|-------------------|
----------------------||--------------------|-------------------|
---------------------*||*-------------------|-------------------|
--2--------3----5----*||*--7----------------|--3----------------|
--0--------1----3-----||---5----------------|--1----------------|
----------------------||--------------------|-------------------|


  W                   H        Q    Q         H        Q    Q     
-------------------|----------------------||---------------------|
-------------------|----------------------||---------------------|
-------------------|---------------------*||---------------------|
--5----------------|--2--------3----5----*||--2--------3----5----|
--3----------------|--0--------1----3-----||--0--------1----3----|
-------------------|----------------------||---------------------|


   Solo 2                                                
   Q      Q      Q      Q         H           H          
------------------------------|--19---------------------|
--15-----17-----18-----20-----|--22br--------22~--------|
--17b----19b----20b----22b----|-------------------------|
------------------------------|-------------------------|
------------------------------|-------------------------|
------------------------------|-------------------------|


   |---3---|                                               
   S   S   S  S  S  S  S  S  S   S  S  S  S   S  S  S   S  
--15h-17p-15-13-15-13-12----13p-12------------------------|
-------------------------15--------15-13--------13--------|
-----------------------------------------15p-14----15p-14-|
----------------------------------------------------------|
----------------------------------------------------------|
----------------------------------------------------------|


   S  S  S   S   S  S  S  S   S   S  S  S  S  S  S  S  
------------------------------------------------------|
------------------------------------------------------|
--12------------------12-14h-15p-14-12----12----------|
-----15-14p-12h-14-15------------------15----15-14-12-|
------------------------------------------------------|
------------------------------------------------------|


    Q      E  E   Q     E   E      H          H          
-------------------------------|------------------------|
-------------------------------|--10~-------------------|
--------------9--10~----9------|-------------12~--------|
--/12~-----L---------------12--|------------------------|
-------------------------------|------------------------|
-------------------------------|------------------------|


          |---3---|        |---3--|           |---3--|     
   Q      S   S   S  S  S  S   S  S  S  S  S  S   S  S  S  
------------------------------------------10-12p-10----10-|
--10~----10h-13p-10----10-13p-12----10-13-----------13----|
--------------------12-----------12-----------------------|
----------------------------------------------------------|
----------------------------------------------------------|
----------------------------------------------------------|


   E    S  S  S   S   S  S  S  S   E   S  S   S  S    H         Q     Q     
-------10------------------------------------------|-----------------------|
--13b-----13-10h-13p-10----------------------------|-----------------------|
------------------------12-10-12br-L-----12p-10----|--9~--------9s---------|
--------------------------------------12--------12-|-----------------------|
---------------------------------------------------|-----------------------|
---------------------------------------------------|-----------------------|


  E  S S S S S S E  S S S S S S    E  S S S S S S S S S S S S S S  
--------------------------------|---------------------------------|
--------------------------------|---------------------------------|
--------------------------------|---------------------------------|
--5-----------------------------|--2------------------------------|
--3--3-3-3-3-3-3-5--------------|--0--0-0-0-0-0-0-0-0-0-0-0-0-0-0-|
-----------------3--3-3-3-3-3-3-|---------------------------------|


  E  S S S S S S E  S S S S  S S    E  S S S S S S S S S S S S S S  
---------------------------------|---------------------------------|
---------------------------------|---------------------------------|
---------------------------------|---------------------------------|
--5------------------------------|---------------------------------|
--3--3-3-3-3-3-3-5--0-2-3-2p-0---|--3------------------------------|
-----------------3-------------3-|--1--1-1-1-1-1-1-1-1-1-1-1-1-1-1-|


  E  S S S S S S S S S S S S S S    E  S S S S S S S S S S S S S S  
---------------------------------|---------------------------------|
---------------------------------|---------------------------------|
---------------------------------|---------------------------------|
---------------------------------|---------------------------------|
--2------------------------------|--3------------------------------|
--0--0-0-0-0-0-0-0-0-0-0-0-0-0-0-|--1--1-1-1-1-1-1-1-1-1-1-1-1-1-1-|


                                   Chorus                              
  E  S S S S S S E  S S S S S S    E      S S S S S S S S S S S S S S  
--------------------------------|-------------------------------------|
--------------------------------|-------------------------------------|
--------------------------------|-------------------------------------|
--------------------------------|--2----------------------------------|
--5--------------2--------------|--0------0-0-0-0-0-0-0-0-0-0-0-0-0-0-|
--3--3-3-3-3-3-3-0--0-0-0-0-0-0-|-------------------------------------|


  E  S S S S S S E  S S S S  S S    E  S S S S S S S S S S S S S S  
---------------------------------|---------------------------------|
---------------------------------|---------------------------------|
---------------------------------|---------------------------------|
---------------------------------|--2------------------------------|
--5--------------3--0-2-3-2p-0---|--0--0-0-0-0-0-0-0-0-0-0-0-0-0-0-|
--3--3-3-3-3-3-3-1-------------3-|---------------------------------|


  E  S S S S S S E  S S E  S S    E  S S S S S S S S S S S S S S  
-------------------------------|---------------------------------|
-------------------------------|---------------------------------|
-------------------------------|---------------------------------|
-----------------5--x-x--------|--2------------------------------|
--3--------------3--x-x-5--x-x-|--0--0-0-0-0-0-0-0-0-0-0-0-0-0-0-|
--1--1-1-1-1-1-1--------3--x-x-|---------------------------------|


  E  S S S S S S E  S S S S  S S    E  S S S S S S S S S S S S S S  
---------------------------------|---------------------------------|
---------------------------------|---------------------------------|
---------------------------------|---------------------------------|
---------------------------------|--5------------------------------|
--5--------------3--0-2-3-2p-0---|--3--3-3-3-3-3-3-3-3-3-3-3-3-3-3-|
--3--3-3-3-3-3-3-1-------------3-|---------------------------------|


  E  S S S S S S E  S S S S S S    S S S S S S S S  
--------------------------------|------------------|
--------------------------------|------------------|
--------------------------------|------------------|
--7--------------9--------------|------------------|
--5--5-5-5-5-5-5-7--7-7-7-7-7-7-|--7-7-7-7-7-7-7-7-|
--------------------------------|------------------|


  E  S S S S S S S S S S S S S S    E  S S S S S S E  S S S S  S S  
---------------------------------|---------------------------------|
---------------------------------|---------------------------------|
---------------------------------|---------------------------------|
--2------------------------------|---------------------------------|
--0--0-0-0-0-0-0-0-0-0-0-0-0-0-0-|--5--------------3--0-2-3-2p-0---|
---------------------------------|--3--3-3-3-3-3-3-1-------------3-|


  E  S S S S S S S S S S S S S S    E  S S S S S S E  S S E  S S  
---------------------------------|-------------------------------|
---------------------------------|-------------------------------|
---------------------------------|-------------------------------|
--2------------------------------|-----------------5--x-x--------|
--0--0-0-0-0-0-0-0-0-0-0-0-0-0-0-|--3--------------3--x-x-5--x-x-|
---------------------------------|--1--1-1-1-1-1-1--------3--x-x-|


  E  S S S S S S S S S S S S S S    E  S S S S S S E  S S S S  S S  
---------------------------------|---------------------------------|
---------------------------------|---------------------------------|
---------------------------------|---------------------------------|
--2------------------------------|---------------------------------|
--0--0-0-0-0-0-0-0-0-0-0-0-0-0-0-|--5--------------3--0-2-3-2p-0---|
---------------------------------|--3--3-3-3-3-3-3-1-------------3-|


  E  S S S S S S S S S S S S S S    E  S S S S S S E  S S S S S S  
---------------------------------|--------------------------------|
---------------------------------|--------------------------------|
---------------------------------|--------------------------------|
--5------------------------------|--7--------------9--------------|
--3--3-3-3-3-3-3-3-3-3-3-3-3-3-3-|--5--5-5-5-5-5-5-7--7-7-7-7-7-7-|
---------------------------------|--------------------------------|


                                       Interlude 1                              
  S S S S S S S S S S S S S S S S      E           S S S S S S S S S S S S S S  
----------------------------------||-------------------------------------------|
----------------------------------||-------------------------------------5-----|
----------------------------------||*------------------4-5---4-5-7-4-5-7---7-5-|
----------------------------------||*--7-----------5-7-----7-------------------|
--7-7-7-7-7-7-7-7-7-7-7-7-7-7-7-7-||-------------------------------------------|
----------------------------------||-------------------------------------------|


  S S S S S S S S S S S S S S E     E  S S S S S S S S S S S S S S  
---------------------------------|---------------------------------|
----------------------------5-L--|---------------------------5-----|
--4-------4-5---4-5-7-4-5-7------|---------4-5---4-5-7-4-5-7---7-5-|
----7-5-7-----7------------------|--7--5-7-----7-------------------|
---------------------------------|---------------------------------|
---------------------------------|---------------------------------|


                                       Outro                              
  S S S S S S S S S S S S S S E        E     S S S S S S S S S S S S S S  
----------------------------------||-------------------------------------|
----6-5-----5---------------------||-------------------------------------|
--4-----7-5---7-5-4-7-5-4--------*||*------------------------------------|
--------------------------5-7-L--*||*----------7-5-7-8-7-5-7-5---5-------|
----------------------------------||---5-----5-----------------8---8-7---|
----------------------------------||-----------------------------------8-|


  E  S S S S S S S S S S S S S S    E  S S S S S S S S S S S S S S  
---------------------------------|---------------------------------|
---------------------------------|---------------------------------|
---------------------------------|---------------------------------|
-------7-5-7-8-7-5-7-5---5-------|-------------5-------------------|
--5--5-----------------8---8-7---|-------8-7-8---8-7-8-7-5-7-5-----|
-------------------------------8-|--6--6-----------------------8-6-|


                                      Riff A                            
  E  S S S S S S S S S S S S S S      E      S S S S S S E  S S S S E   
----------------------------------||-----------------------------------|
----------------------------------||-----------------------------------|
---------------------------------*||-----------------------------------|
-------------5-------------------*||-----------------------------------|
-------5-7-8---8-7-5-------5-7----||--5------5-7-8-7-5---5--5-7-8-5----|
--8--8---------------8-6-8-----8--||-------------------8---------------|


  E  S S S S S S E  S S S S S S    E  S S  S S S  S E  S S  S S E   
--------------------------------|----------------------------------|
--------------------------------|----------------------------------|
--------------------------------|--7--7-9-10-9-7----7--7-9-10-7----|
--------------------------------|----------------10----------------|
--5--5-7-8-7-5----------5-7-5---|----------------------------------|
---------------8-6--6-8-------8-|----------------------------------|


  E  S S  S S S  S E  S  S S S S  S    Q    H.             
------------------------------------|--------------------||
------------------------------------|--------------------||
--7--7-9-10-9-7------------7-9-7----|--7-----------------||
----------------10-8--8-10-------10-|--7-----------------||
------------------------------------|--------------------||
------------------------------------|--------------------||




Duration Legend
---------------
W - whole
H - half
Q - quarter
E - 8th
S - 16th
T - 32nd
X - 64th
. - note dotted
|-n-|  - n-tuplets


Tablature Legend
----------------
L - tied note
x - dead note
g - grace note
(n) - ghost note
> - accentuded note
NH - natural harmonic
AH - artificial harmonic
TH - tapped harmonic
SH - semi harmonic
PH - pitch harmonic
h - hammer on
p - pull off
b - bend
br - bendRelease
pb - preBend
pbr - preBendRelease
brb - bendReleaseBend
\n/ - tremolo bar dip
\n - tremolo bar dive
-/n - tremolo bar Release up
/n\ - tremolo bar inverted dip
/n - tremolo bar return
-\n - tremolo bar Release down
S - shift slide
s - legato slide
/ -  slide into from below or out of upwards
\ -  slide into from above or out of downwards
~ - vibrato
W - wide vibrato
tr - trill
TP - tremolo picking
T - tapping
S - slap
P - pop
< - fade in
^ - brush up
v - brush down
Tap to rate this tab
# A B C D E F G H I J K L M N O P Q R S T U V W X Y Z